Gitaristu.ru
Аккорды Табулатура Начинающим Мастер-класс Софт Видео
Новости Анонсы Гитары Гитаристы Статьи Аватарки Минусовки
Поиск



Популярные подборы




Настройка гитары






Главная > Аккорды > К > Кино

Аккорды
Кино
-
Когда твоя девушка больна (1)

Не нашли аккорды к песне? Посмотрите на


Подбор прислал: gitaristu.ru
Вступление ПОЛНОСТЬЮ

G DG DG DGD

   C                         D             
|---------------------------------- - --------------------------------------|
|---------------------------------- - --------------------------------------|
|---------------------------------- - --------------------------------------|
|--------------------5------------- - --4-----2---0-------------------------|
|---3-----3------------------------ - ---------------------3----------------|
|---------------------------------- - --------------------------------------|
  G                         Em 
|---------------------------------- - --------------------------------------|
|---------------------------------- - --------------------------------------|
|---------------------------------- - --------------------------------------|
|---------------------------------- - --------------------------------------|
|--2-------0------2---------------- - --------------------------------------|
|---------------------------------- - ------3-------------------------------|

   C                         D             
|---------------------------------- - --------------------------------------|
|---------------------------------- - --------------------------------------|
|---------------------------------- - --------------------------------------|
|--------------------2------------- - --0-----------------------------------|
|---3-----3------------------------ - ---------3------2----0----------------|
|---------------------------------- - --------------------------------------|

  G                         Em 
|---------------------------------- - --------------------------------------|
|---------------------------------- - --------------------------------------|
|---------------------------------- - --------------------------------------|
|---------------------------------- - ------2-------------------------------|
|--2-------0------2---------------- - --------------------------------------|
|---------------------------------- - --------------------------------------|
  C                         D 
|------0---------0----------------- - --------------------------------------|
|----1-------1--------------------- - -----------3--------3-----------------|
|-0---------------------0---------- - -------2---------2-------2------------|
|---------4----------2------------- - -----0--------4--------0--------------|
|---------------------------------- - --------------------------------------|
|---------------------------------- - --------------------------------------|


Вся эта дребедень опять переходит в G DG DG D G  D
Слова для песни и аккорды писать не буду – их и так все знают

Другие подборы этого исполнителя

Расскажи друзьям!




Привет, гитарист!

Пройди супер-курс по гитаре и порази всех своей игрой!

Забрать курс!
ВАМ ПОДАРКИ ОТ ПРОЕКТА
"ГИТАРНАЯ РЕВОЛЮЦИЯ"