Gitaristu.ru
Аккорды Табулатура Начинающим Мастер-класс Софт Видео
Новости Анонсы Гитары Гитаристы Статьи Аватарки Минусовки
Поиск



Популярные подборы




Настройка гитары






Главная > Аккорды > К > Кино

Аккорды
Кино
-
Красно-желтые дни (2)

Не нашли аккорды к песне? Посмотрите на


Подбор прислал: gitaristu.ru
Соло в конце:

4|---4-4--4----2--4---4-4-4--5-7-5--4-0----
5|---------4--2----------------------------
6|-----------------------------------------

4|--4-4-4--5-7-5-4-5--4-4-4--5-7-5-4-0-5-4-
5|-----------------------------------------
6|-----------------------------------------

4|--4-4-4--5-7-5-4-5--4-4-4--5-7-5-4-0-5-7-
5|-----------------------------------------
6|-----------------------------------------

4|--4--5--7-5--4--2---------------------3--2-----3-2-3------
5|--------------------0-----0-----3-----------5-----------3-
6|-----------------------0-----3-----3------------------3---

Другие подборы этого исполнителя

Расскажи друзьям!




Привет, гитарист!

Пройди супер-курс по гитаре и порази всех своей игрой!

Забрать курс!
ВАМ ПОДАРКИ ОТ ПРОЕКТА
"ГИТАРНАЯ РЕВОЛЮЦИЯ"