Gitaristu.ru
Аккорды Табулатура Начинающим Мастер-класс Софт Видео
Новости Анонсы Гитары Гитаристы Статьи Аватарки Минусовки
Поиск



Популярные подборы




Настройка гитары






Главная > Аккорды > К > Кино

Аккорды
Кино
-
Невеселая песня (1)

Не нашли аккорды к песне? Посмотрите на


Подбор прислал: gitaristu.ru
e||--------------------------------------------------|
H||-----------------------------------0--------------|
G||-2-2-----2-2-----2-2-----2-2-1--2---------1-------|
D||-----4-------4-------4----------------2-4---------|
A||--------------------------------------------------|
E||--------------------------------------------------|

e|----------------------------0----------------------||
H|-------------------------------0-------------------||
G|-2-2-----2-2-----2-2----1-2-------1----------------||
D|-----4-------4-------2---------------2-4-----------||
A|---------------------------------------------------||
E|---------------------------------------------------||

Соло в куплете:

e|----------------------------------|-------------------------------------|
b|----------------------------------|--0----------------------------------|
g|--2----------2---2------1---------|------------4---4------2-------------|
d|-----------2---2---2-------2------|----------4---4---4-------4----------|
a|------------------------------2---|------------------------------4------|
e|----------------------------------|-------------------------------------|

 Fm#             H
Наши реки бедны водой,
 Fm#                    E
В наших окнах не видно дня,
 Fm#                 H
Наше утро похоже на ночь,
 A                 E
Ну, а ночь - для меня...
Глядя в жидкое зеркало луж,
На часы, что полвека стоят,
На до дыр зацелованный флаг,
Я полцарства отдам за коня.

        A   E       Hm         Fm#
        Играй, невеселая песня моя.
         A       E     Fm#
        Играй... Играй...

Командиры Армии Лет,
Мы теряли в бою день за днем,
А когда мы разжигали огонь,
Наш огонь тушили дождем.
Мы сидим у разбитых корыт
И гадаем на розе ветров,
А когда приходит время вставать,
Мы сидим, мы ждем.

        Играй, невеселая песня моя.
        Играй... Играй...

Другие подборы этого исполнителя

Расскажи друзьям!




Привет, гитарист!

Пройди супер-курс по гитаре и порази всех своей игрой!

Забрать курс!
ВАМ ПОДАРКИ ОТ ПРОЕКТА
"ГИТАРНАЯ РЕВОЛЮЦИЯ"