Gitaristu.ru
Аккорды Табулатура Начинающим Мастер-класс Софт Видео
Новости Анонсы Гитары Гитаристы Статьи Аватарки Минусовки
Поиск



Популярные подборы




Настройка гитары






Главная > Аккорды > К > Кино

Аккорды
Кино
-
Ночь (1)

Не нашли аккорды к песне? Посмотрите на


Подбор прислал: gitaristu.ru

        6-я струна
E |---------------------------------------------------------| |
A |-2--2--2---------2------------1--1--1---------1----------| |
D |-----------4--4------4---4-------------3--3-------3--3---| |
G |---------------------------------------------------------| |
B |---------------------------------------------------------| |
e |---------------------------------------------------------| |
       1-я струна                              continues below...

       6-я струна
E|----2--2--2-----------2----------2--2--2----------2---------| |
A|---------------4--4------4--4-------------4--4--------4--4--| |
D|------------------------------------------------------------| |
G|------------------------------------------------------------| |
B|------------------------------------------------------------| |
e|------------------------------------------------------------| |
        1-я струна

Ver.2
~~~~~
Вступление: (Снято с аккустической версии)

e|-----------------------------------------------------------------
b|-----------------------------------------------------------------
g|------------0-0-----------0-0------------------------------------
d|------5-5-----------4-4------------------0-0-------------0-0-----
a|-3-3-----3-----2-2-----2-----------5-5-------------5-5-----------
e|-------------------------------3-3------3------3-3-----3---------

  C               Hm                   G
За окнами солнце, за окнами свет - это день.
 C          Hm        G
Ну, а я всегда любил ночь.
       A#  C            Em
И это мое дело - любить ночь,
       A#  C             G
И это мое право - уйти в тень.

Я люблю ночь за то, что в ней меньше машин,
Я люблю дым и пепел своих папирос,
Я люблю кухни за то, что они хранят тайны,
Я люблю свой дом, но вряд ли это всерьез.

         C                    D
        И эта ночь и ее электрический свет
                     G
        Бьет мне в глаза,
         C                    D
        И эта ночь и ее электрический свет
         G
        Бьет мне в окно,
         C                    D
        И эта ночь и ее электрический голос
         G     Fm#      Em
        Манит меня к себе,
         C                   D#
        И я не знаю, как мне прожить
                 G
        Следующий день.

Я один, но это не значит, что я одинок,
Мой магнитофон хрипит о радостях дня,
Я помню, что завтра меня ждет несколько встреч,
И кофе в известном кафе согреет меня.

        И эта ночь и ее электрический свет
        Бьет мне в глаза,
        И эта ночь и ее электрический свет
        Льет мне в окно,
        И эта ночь и ее электрический голос
        Манит меня к себе,
        И я не знаю, как мне прожить
        Следующий день.

Другие подборы этого исполнителя

Расскажи друзьям!




Привет, гитарист!

Пройди супер-курс по гитаре и порази всех своей игрой!

Забрать курс!
ВАМ ПОДАРКИ ОТ ПРОЕКТА
"ГИТАРНАЯ РЕВОЛЮЦИЯ"