Gitaristu.ru
Аккорды Табулатура Начинающим Мастер-класс Софт Видео
Новости Анонсы Гитары Гитаристы Статьи Аватарки Минусовки
Поиск



Популярные подборы




Настройка гитары






Главная > Аккорды > К > Кино

Аккорды
Кино
-
Перемен! (3) (4)

Не нашли аккорды к песне? Посмотрите на


Подбор прислал: gitaristu.ru
 Fm#
Вместо тепла - зелень стекла,
 A
Вместо огня - дым,
 E                           Fm#
Из сетки календаря выхвачен день.
 Fm#
Красное солнце сгорает дотла,
 A
День догорает с ним,
      E                   Fm#
На пылающий город падает тень.

             Hm      A      E        Fm#
        Перемен  - требуют наши сердца.
             Hm      A      E      Fm#
        Перемен  - требуют наши глаза.
                  Fm#               A
        В нашем смехе и в наших слезах,
                 E     Fm#
        И в пульсации вен:
             Hm
        Перемен 
        E            Fm#
        Мы ждем перемен 

Электрический свет продолжает наш день,
И коробка от спичек пуста,
Но на кухне синим цветком горит газ.
Сигареты в руках, чай на столе - эта схема проста,
И больше нет ничего, все находится в нас.

Припев

Мы не можем похвастаться мудростью глаз
И умелыми жестами рук,
Нам не нужно все это, чтобы друг друга понять.
Сигареты в руках, чай на столе - так замыкается круг,
И вдруг нам становится страшно что-то менять.

Припев

Проигрыш в куплете:

   Fm#                                     A
D ---------------------------------------6-7--7-7-7--6-7-6-7-6-7--7-7-7--6-7-6-7-6
A -9--9-9-9--7-9-7-9-7-9--9-9-9--7-9-7-9------------------------------------------
   E                                       Fm#
D -----------------------------------------------------------6-7--7-7-7--6-7-6-7-6
A -7--7-7-7--6-7-6-7-6-7--7-7-7--6-7-6-7-6-9--9-9-9--7-9-7-9----------------------

Дальше в припеве что-то вроде этого:

   Hm               A       Em             Fm#
B ---------0----------------0-----------------------------------------------------
G --------------------------------------------------------------------------------
D -----------------------------------------------------------6-7--7-7-7--6-7-6-7-6
A ----9----------9-----7-------------------9--9-9-9--7-9-7-9----------------------
E -7----------7-----5-------------------------------------------------------------

Intro, а так же проигрыш м-ду куплетом и припевом: 

   Fm#                  Fm#                  Hm              Hm         
A -------------------------------------------9-----9-----9---8-----8-----8--
E -2--2-2-2--4-5-4-5-2--2--2-2-2--4-5-4-5-4--7-7-7-7-7-7-7-7-7-7-7-7-7-7-7-7-

   Fm#                  Fm#                  Hm                       G# A
A -------------------------------------------9-----9-----9---8-----8--6--7---
E -2--2-2-2--4-5-4-5-2--2--2-2-2--4-5-4-5-4--7-7-7-7-7-7-7-7-7-7-7-7--4--5---

--------------------------
Песня подобрана лично мной

Другие подборы этого исполнителя

Расскажи друзьям!




Привет, гитарист!

Пройди супер-курс по гитаре и порази всех своей игрой!

Забрать курс!
ВАМ ПОДАРКИ ОТ ПРОЕКТА
"ГИТАРНАЯ РЕВОЛЮЦИЯ"