Gitaristu.ru
Аккорды Табулатура Начинающим Мастер-класс Софт Видео
Новости Анонсы Гитары Гитаристы Статьи Аватарки Минусовки
Поиск



Популярные подборы




Настройка гитары






Главная > Аккорды > К > Кино

Аккорды
Кино
-
Песня без слов (1)

Не нашли аккорды к песне? Посмотрите на


Подбор прислал: gitaristu.ru
Вступление (натуральные флажолеты на 12 ладу):

|----------------|
|----------------|
|----------------|
|----------------|
|----х-х-----х-х-|
|х-х-----хххх----|

Под куплет:

 Am                                G
|----------------|----------------|----------------|----------------|
|----------------|----------------|--------------8~|----------------|
|----------------|----------------|7-----------7---|----------------|
|7---7-5-7---7-5-|7---7-5-7---7-5-|5---5---5-7-----|----------------|
|----------------|----------------|----------------|----------------|
|----------------|----------------|----------------|----------------| 

 Dm                                E                F
|----------------|----------------|----------------|----------------|
|----------------|----------------|--------------8~|----------------|
|----------------|----------------|------------7---|----------------|
|7---7-5-7---7-5-|7---7-5-7---7-5-|9---------7-----|----------------|
|----------------|----------------|7---7---7-------|----------------|
|----------------|----------------|----------------|----------------| 

 Am
Песня без слов, ночь без сна,
  G
Все в свое время - зима и весна,
 Dm
Каждой звезде - свой неба кусок,
 E                 F
Каждому морю - дождя глоток.
 Am
Каждому яблоку - место упасть,
 G
Каждому вору - возможность украсть,
 Dm
Каждой собаке - палку и кость,
   E               F
И каждому волку - зубы и злость.

Припев (играть только верхние струны с глушением):

       E              Am
     Снова за окнами белый день,
      E               Am
     День вызывает меня на бой.
        G              F
     Я чувствую, закрывая глаза, -
           E             F         
     Весь мир идёт на меня войной.

Соло:
 Am                                G
|----------------|----------------|----------------|----------------|
|----------------|----------------|----------------|----------------|
|----------------|----------------|----------------|----------------|
|----------------|----------------|------------5---|----------------|
|------5---------|7---5-----------|----------5---7-|----------------|
|5-8-5---8------5|--5---5-8-7-8-3-|----------------|----------------| 
 Dm                                E                F
|----------------|----------------|----------------|----------------|
|----------------|----------------|----------------|----------------|
|----------------|----------------|----------------|-----5----------|
|----------------|----------------|----------------|---8------------|
|--7-7---5-------|5-5-------------|----------------|-5--------------|
|5-----5--------5|----5-8---5-8-7-|----------3-5-1-|----------------| 
 
Если есть стадо - есть пастух,
Если есть тело - должен быть дух,
Если есть шаг - должен быть след,
Если есть тьма - должен быть свет.
Хочешь ли ты изменить этот мир,
Сможешь ли ты принять как есть,
Встать и выйти из ряда вон,
Сесть на электрический стул или трон
	
	Припев.

Другие подборы этого исполнителя

Расскажи друзьям!




Привет, гитарист!

Пройди супер-курс по гитаре и порази всех своей игрой!

Забрать курс!
ВАМ ПОДАРКИ ОТ ПРОЕКТА
"ГИТАРНАЯ РЕВОЛЮЦИЯ"