Gitaristu.ru
Аккорды Табулатура Начинающим Мастер-класс Софт Видео
Новости Анонсы Гитары Гитаристы Статьи Аватарки Минусовки
Поиск



Популярные подборы




Настройка гитары






Главная > Аккорды > К > Кино

Аккорды
Кино
-
Последний герой (3)

Не нашли аккорды к песне? Посмотрите на


Подбор прислал: gitaristu.ru
Эти табы я снял с компакт-касеты альбома Неизвестные песни.

Обозначения:
u - удар по струнам сверху вниз.
d - удар по струнам снизу вверх.

Таб. Вступление:

      Em       Это играем вмеру быстро        Hm      
    -------  --------------------------- ------------- 
1 --0--0--0--------3-------2-------0-----2--2--2--2--2-------------------  2
2 --0--0--0-------0-------0-------0------3--3--3--3--3-------------------  р
3 --0--0--0------0-------0-------0-------4--4--4--4--4-------------------  а 
4 --2--2--2-----2-------2-------2--------4--4--4--4--4-------------------  з
5 --2--2--2----2-------2-------2---------2--2--2--2--2-------------------  а 
6 --0--0--0---0-------0-------0----------2--2--2--2--2-------------------
              ------  ------  ------
    u  d  u     u       u       u        u  d  u  d  u

Вместе с этим вступлением, когда играем  Hm  (u d u d)- играет другая гитара
     Так: 1 --12------12------12----------------------------
          2 ------12------12------12------------------------
Ну а дальше - поехали :

4 ----------5--7--9---5---5--9--10--12---12--12--12- Эти басы играются на 
5 ---7--7------------------------------------------- протяжении всей песни.

А аккорды такие:

Em Hm G D

Другие подборы этого исполнителя

Расскажи друзьям!




Привет, гитарист!

Пройди супер-курс по гитаре и порази всех своей игрой!

Забрать курс!
ВАМ ПОДАРКИ ОТ ПРОЕКТА
"ГИТАРНАЯ РЕВОЛЮЦИЯ"