Gitaristu.ru
Аккорды Табулатура Начинающим Мастер-класс Софт Видео
Новости Анонсы Гитары Гитаристы Статьи Аватарки Минусовки
Поиск



Популярные подборы




Настройка гитары






Главная > Аккорды > К > Кино

Аккорды
Кино
-
Раньше в твоих глазах

Не нашли аккорды к песне? Посмотрите на


Подбор прислал: gitaristu.ru
      Em                             Hm        Em
      Раньше в твоих глазах отражались костры, 
      Em                            Hm
      Em
      Теперь лишь настольная лампа - рассеянный свет.
      G                            Hm        Em
      Что-то проходит мимо - тебе становится непосебе.
      Em                       Hm 
      Это был новый день - в нём тебя нет. 
      
      Раньше в твоих глазах отражалась ночь. 
      Теперь, когда за окнами ночь - твои глаза спят. 
      И вот на рассвете ты не заметил, как начался новый день. 
      Ты до сих пор в старом - там нет никаких преград. 
       
e|-----------------|-----------------|-----------------|
H|-----------------|-----------------|-----------------|
G|-------0-------0-|-------0---------|-------0-------0-|
D|-----4-------4---|-----7---7-------|-----4-------4---|
A|---2-------2-----|---5-------5---5-|---2-------2-----|
E|-0-------3-------|-7-----------7---|-0-------3-------|

e|-----------------|-----------------|-----------------|
H|-----------------|-----------------|-----------------|
G|-------0-----7---|-------0-------0-|-------0---------|
D|-----7---7-----0-|-----4-------4---|-----7---7-------|
A|---5-------5-----|---2-------2-----|---5-------5---5-|
E|-7---------------|-0-------3-------|-7-----------7---|

Другие подборы этого исполнителя

Расскажи друзьям!




Привет, гитарист!

Пройди супер-курс по гитаре и порази всех своей игрой!

Забрать курс!
ВАМ ПОДАРКИ ОТ ПРОЕКТА
"ГИТАРНАЯ РЕВОЛЮЦИЯ"