Gitaristu.ru
Аккорды Табулатура Начинающим Мастер-класс Софт Видео
Новости Анонсы Гитары Гитаристы Статьи Аватарки Минусовки
Поиск



Популярные подборы




Настройка гитары






Главная > Аккорды > К > Кино

Аккорды
Кино
-
Спокойная ночь (1)

Не нашли аккорды к песне? Посмотрите на


Подбор прислал: gitaristu.ru
Это соло вступления (играется 2 раза):
3)-------------------0-------------------------------------
4)-----------------5---5-5----------------------------0-----
5)—0-0-0-3-3-3-3-3----------3-3-3-3-3-2-2-2-5-5-5-5-5----5-5-3-3-2-3-----
Далее идет сама песня:
2)---------------------------------------------------------
3)-----------------------0----------------------------------
4)---------------------5---5-5---------------------------------7-7-7------------0-0-0-3-3-2-3-0--------3-3-2-3-0--
5)-0-0-0-3-3-3-3-3----------3-3-3-3-3-2-2-2-5-5-5-5-5--------5-5-5-5-5--------------------2-2-2-------------

6)----------------------------------------------------------
2)------------------------------------------
3)----------------------0-------------------
4)--------------------5---5-5--------------
5)-0-0-0-3-3-3-3-3---------3-3-2-3-0--
6)-------------------------------------------

Соло на припев:
2)---------------------------------------------------0------
3)-----------------------------------------0-----------0----
4)---------------------------------------5---5-5---------0--5)---3-3-3--------2-2-3-2--0-0-0—-3-3-3-3--------3---------
6)111------11000--------------------------------------------

В конце играется соло, начиная с последнего припева:

играется 2 раза

1)-------3-1-0-----------------3----------3------------------------------------3-1--0----------------
2)---------------0-0-1-3--0-1----------------1--3-0-0-1--3-3--1-0-0-1-3-------------------------
3)----2--------------------------------2----------------------------------------------------------------
4)-3--------------------------------3-------------------------------------------------------------------

1)-------3-1-0----------------3----------3-----------------------------------0----0----
2)---------------0-0-1-3-0-1---------------1-3-0-0-1--3--3--1-0--0-1-3----3-----
3)---2---------------------------------2------------------------------------------------
4)-3--------------------------------3---------------------------------------------------

1)------------15--13--12------------------------ --15----------15---------------------------------------------------------   
2)-------------------------12--12-13-15---12-13----------------------13-15-12-12--13--15--15-13--12--12—13--
3)--10--14----------------------------------------------10-14--------------------------------------------------------------
4)-----------------------------------------------------------------------------------------------------------------------------

1)----15-13-12----------
2)-15---------------------
3)-------------------------
4)-------------------------

Другие подборы этого исполнителя

Расскажи друзьям!




Привет, гитарист!

Пройди супер-курс по гитаре и порази всех своей игрой!

Забрать курс!
ВАМ ПОДАРКИ ОТ ПРОЕКТА
"ГИТАРНАЯ РЕВОЛЮЦИЯ"