Gitaristu.ru
Аккорды Табулатура Начинающим Мастер-класс Софт Видео
Новости Анонсы Гитары Гитаристы Статьи Аватарки Минусовки
Поиск



Популярные подборы




Настройка гитары






Главная > Аккорды > К > Кино

Аккорды
Кино
-
Спокойная ночь (2)

Не нашли аккорды к песне? Посмотрите на


Подбор прислал: gitaristu.ru
               
 3 -----------------0---------------------------------------------
 4 -----------------5-5-5---------------------------0-------------
 5 -0-0-0-3-3-3-3-3-------3-3-3-3-3-2-2-2-5-5-5-5-5---5-5-3---2-3-


Am (2)   G(1)   Dm(1/2)   C(1/2)  
Am (2)   G(1)   Dm(1/2)   C(1/2)  
( * ) - кол-во тактов. (прислал Deacon, -deacon@yandex.ru)

             Am                              G
           Крыши домов дрожат под тяжестью дней
            Dm             Am
           Небесный пастух пасет облака
            Am                           G
           Город стреляет в ночь дробью огней
            Dm                  Am
           Но ночь сильней  ее власть велика

                   F              Em
                  Тем  кто ложится спать
                             Am   
                  Спокойного сна
        F    C               Am
                  Спокойная ночь
                   F              Em
                  Тем  кто ложится спать 
                              Am  F C
                  Спокойного сна
        F    C                Am 
                  Спокойная ночь

         Я ждал это время и вот это время пришло
         Те кто молчал перестали молчать
         Те кому нечего ждать садятся в седло
         Их не догнать уже не догнать

                 Тем кто ложится спать 
                 Спокойного сна
                 Спокойная ночь

         Соседи приходят им слышится стук копы
         Мешают уснуть тревожат их сон
         Те кому нечего ждать отправляются в путь
         Те кто спасен те кто спасен

                 Тем кто ложится спать 
                 Спокойного сна
                 Спокойная ночь
     
 4 ---------2----------------2-----5---------------------------------
 5 ---3-------2-2-3--5-2-3-------3---3--5-2-2-3-5-7-5-3-2-3-5-10-8-7-  два раза
 6 -1---1-0--------------------1-------------------------------------

 2 -----5-3-1-0-0-1--3-0-1---3-------5-3--1-0--0-1-3-5-3-1-0-1-3-8-6-5- два раза
 3 ---2--------------------------2-------------------------------------
 4 -3--------------------------3---------------------------------------

 1 ------12-10--8--7-7-8-10-7-8--10---8--12-10-8-7-7-8-10-12-10-8-7-8-10-15-13-12  
 2 -6-10----------------------------6--------------------------------------------
 
 1 ------12-10--8--7-7-8-10-7-8--10---8--12-10-8-7--7^^^^
 2 -6-10----------------------------6----------------


Другие подборы этого исполнителя

Расскажи друзьям!




Привет, гитарист!

Пройди супер-курс по гитаре и порази всех своей игрой!

Забрать курс!
ВАМ ПОДАРКИ ОТ ПРОЕКТА
"ГИТАРНАЯ РЕВОЛЮЦИЯ"