Gitaristu.ru
Аккорды Табулатура Начинающим Мастер-класс Софт Видео
Новости Анонсы Гитары Гитаристы Статьи Аватарки Минусовки
Поиск



Популярные подборы




Настройка гитары






Главная > Аккорды > К > Кино

Аккорды
Кино
-
Восьмиклассница

Не нашли аккорды к песне? Посмотрите на


Подбор прислал: gitaristu.ru
*45* (1982)
  Восьмиклассница

     Am        Em
(1)  Пустынной улицей вдвоем
      C           G
  С тобой куда-то мы идем,
    F         G     C    Am
  И я курю, а ты конфеты ешь.
    Am         Em
  И светят фонари давно,
     C             G
  Ты говоришь: Пойдем в кино,
    F        G      C      Am
  А я тебя зову в кабак, конечно.

  F G         C         Am
Припев:  У-у, восьмиклассница,
  F G
  У-у...
  |Am:Em| } 4 раза

(2)  Ты говоришь, что у тебя по географии трояк,
  А мне на это просто наплевать.
  Ты говоришь, из-за тебя там кто-то получил синяк,
  Многозначительно молчу, и дальше мы идем гулять.

   Припев.

(2)  Мамина помада, сапоги старшей сестры.
  Мне легко с тобой, а ты гордишься мной,
  Ты любишь своих кукол и воздушные шары.
  Hо в 10 ровно мама ждет тебя домой.

   Припев.

   Подкладка под проигрыш

     - natural harmonic.

   |---Am--------Em-------------Am--------Em--------------------------|
   |                                                                  |
  [e|--(5)---------------(12)---(5)---------------(5)------------------|
  b|-----(5)----(5)---------------(5)----(5)-(5)----------------------|
  g|--------(5)----------------------(5)------------------------------|]

   Соло

   |--Am-----------C-----G--------не помню--------------------------|
   |                                                                  |
  [e|---------------------------0--------------------------------------|
  b|----0-1-0--1-----------------3-1--0---1-------0-1-0--1------------|
  g|--2-----------/4-----2----------------------2-----------/4----2---|
  d|------------------------------------------------------------------|
  a|------------------------------------------------------------------|
  E|------------------------------------------------------------------|

   |--------------C---------------------------------------------------|
   |                                                                  |
  e|------------------------------------------------------------------|
  b|------0-----0-1---------------------------------------------------|
  g|--0-2-----2-------------------------------------------------------|
  d|------------------------------------------------------------------|
  a|------------------------------------------------------------------|
  E|------------------------------------------------------------------|]

-

Intro:  Am Em
Verse:  Am Em C G F G C Am
Chorus:  F G C Am
Solo in chorus: [E -7--5--7--
  B -0--0--0--
  G -0--0--0--]

-

Вступление: Am E Am E Am E Am E

  Am Em C G
(1)  Пустынной улицей вдвоём с тобой куда-то мы идём
  F G C Am
  И я курю, а ты конфеты ешь.
  Am Em C F
  И светят фонари давно, ты говоришь: Пойдем в кино
  F G C Am
  А я тебя веду в кабак конечно.

  F G C Am F G
Припев:  М-м-м Восьмиклассница

Проигрыш: Am E Am E Am E Am E

(2)  Ты говоришь, что у тебя по географии трояк,
  А мне на это просто наплевать.
  Ты говоришь, из-за тебя там кто-то получил синяк,
  Многозначительно молчу, и дальше мы идём гулять.

Припев:  М-м-м Восьмиклассница

Проигрыш: Am E Am E Am E Am E

(3)  Мамина помада, сапоги старшей сестры.
  Мне легко с тобой, а ты гордишься мной,
  Ты любишь своих кукол и воздушные шары.
  Но в 10 ровно мама ждёт тебя домой.

Припев:  М-м-м Восьмиклассница

Проигрыш: Am E Am E Am E AM E


Другие подборы этого исполнителя

Расскажи друзьям!




Привет, гитарист!

Пройди супер-курс по гитаре и порази всех своей игрой!

Забрать курс!
ВАМ ПОДАРКИ ОТ ПРОЕКТА
"ГИТАРНАЯ РЕВОЛЮЦИЯ"