Gitaristu.ru
Аккорды Табулатура Начинающим Мастер-класс Софт Видео
Новости Анонсы Гитары Гитаристы Статьи Аватарки Минусовки
Поиск



Популярные подборы




Настройка гитары






Главная > Аккорды > К > Кино

Аккорды
Кино
-
Время есть, а денег нет (2)

Не нашли аккорды к песне? Посмотрите на


Подбор прислал: gitaristu.ru
                 Intro

e-5-0--0-0-3-0-7--------
b-5-0--1-0-1-0-5--------
g-5-0--2-0-0-0-5--------
d----2------------------

            Бас:

e----------------------------------------------------------
b----------------------------------------------------------
g-------------------------------2-2------------------------
D--------------------------0-3-5----5-3-5-3-2-2------------
A-0-3-5-0-0-3--0-3-5-0-0-3----------------------0----------
E----------------------------------------------------------

В общем бас со вступлением подобрал.
А аккорды и текст есть в двух версиях
этой же песни.


Другие подборы этого исполнителя

Расскажи друзьям!




Привет, гитарист!

Пройди супер-курс по гитаре и порази всех своей игрой!

Забрать курс!
ВАМ ПОДАРКИ ОТ ПРОЕКТА
"ГИТАРНАЯ РЕВОЛЮЦИЯ"