Gitaristu.ru
Аккорды Табулатура Начинающим Мастер-класс Софт Видео
Новости Анонсы Гитары Гитаристы Статьи Аватарки Минусовки
Поиск



Популярные подборы




Настройка гитары






Главная > Аккорды > К > Кино

Аккорды
Кино
-
Закрой за мной дверь (1)

Не нашли аккорды к песне? Посмотрите на


Подбор прислал: gitaristu.ru
Прежде чем вам захочется съиграть эту песню,
 то послушайте сначала её на кассете или CD

Если сделать всё как надо, то очень похоже на 
Цоевский вариант.


Вступление:      

                 A                Fm#     G
1---------------0-----------------2------3------------
2---------------2-3-2-0-2-0-------2------3—5---------
3---------------2-----------------2------4---6-5-4----
4---------------2-----------------4------5-------------
5--4-4-4-4-4----0-----------------4------5-------------
6--2-2-2-2-2----0---------------- 2------3--------------

Моменты с переходами играются на этом же аккорде (лад меняется мизинцем)

Куплет собственно ничем и не отличается


   Hm                         A (играть как во вступлении)
Они говорят: им нельзя рисковать,
                                                                                  Fm#                      G  F#
Потому что у них есть дом, в доме горит свет.
   Hm                         A (как во вступлении)
И я не зная точно, кто из нас прав,
                                                                                 Fm#                     G F#
Меня ждёт на улице дождь, их ждёт дома обед.


Припев  (аккорды ниже играть этим способом )

    Hm   A                 Fm#    G
1 --2---0------------------2-----3-----------      
2-- 3---2-3-2-0-2-0--------2-----3-5--------
3 --4---2------------------2-----4---6-5-4-
4-- 4---2------------------4-----5------------
5 --2---0------------------4-----5------------
6-- 2---0------------------2-----3------------

Hm              A             Fm#   G
Закрой за мной дверь. Я ухожу.
Закрой за мной дверь. Я ухожу


И если тебе вдруг наскучит твой ласковый свет
Тебе найдется место у нас, дождя хватит на всех.
Посмотри на часы, посмотри на портрет на стене,
Прислушайся - там, за окном, ты услышишь наш смех.

    Закрой за мной дверь. Я ухожу.
    Закрой за мной дверь. Я ухожу.



Ну а вообще, кто разбирается в этом деле, должен понять что к чему

Другие подборы этого исполнителя

Расскажи друзьям!




Привет, гитарист!

Пройди супер-курс по гитаре и порази всех своей игрой!

Забрать курс!
ВАМ ПОДАРКИ ОТ ПРОЕКТА
"ГИТАРНАЯ РЕВОЛЮЦИЯ"