Gitaristu.ru
Аккорды Табулатура Начинающим Мастер-класс Софт Видео
Новости Анонсы Гитары Гитаристы Статьи Аватарки Минусовки
Поиск



Популярные подборы




Настройка гитары






Главная > Аккорды > К > Кино

Аккорды
Кино
-
Звезда

Не нашли аккорды к песне? Посмотрите на


Подбор прислал: gitaristu.ru
(Отличается от другой версии только наличием соло)
Dm           C       F
Волчий вой да лай собак,
 Gm             C       Dm
Крепко до боли сжатый кулак,
 Dm               C       F
Птицей стучится в жилах кровь,
 Gm         C         Dm
Вера да надежда, любовь.

“За” голосуют тысячи рук,
И высок наш флаг.
Синее небо да солнца круг,
Все на месте, да что-то не так.

         F             C         D C
        В небе над нами горит звезда,
         F            C       Dm  C
        Некому кроме нее нам помочь,
         F              C      Dm C
        В темную, темную, темную
        F C Dm
        Ночь.


Соло (играется быстро):
e |------- -----5-3----------------5-3--------
h |-3-3-6-5-3-5-----5--3-3-6-5-3-5-----5------
g |-------------------------------------------

e |------8-6-5---5------------8-6-5---5-------
h |-6-6--------8---8-5---6-6--------8---8-5---
g |-------------------------------------------

e |------- -----5-3----------------5-3--------
h |-3-3-6-5-3-5-----5--3-3-6-5-3-5-----5------
g |-------------------------------------------

e |------8-6-5---5------------8-6-5---5-------
h |-6-6--------8---8-5---6-6--------8---8-5-3-
g |-------------------------------------------


Ночь пришла, за ней гроза,
Грустный дождь, да ветер шутник.
Руки в карманы, вниз глаза
Да за зубы язык.

Ох, заедает меня тоска,
Верная подруга моя.
Пей да гуляй, пой да танцуй,
Я с тобой пока.
        
        В небе над нами горит звезда,
        Некому кроме нее нам помочь,
        В темную, темную, темную ночь.

        В небе над нами горит звезда,
        Некому кроме нее нам помочь,
        В темную, темную, темную ночь.

Соло (x2).

Другие подборы этого исполнителя

Расскажи друзьям!




Привет, гитарист!

Пройди супер-курс по гитаре и порази всех своей игрой!

Забрать курс!
ВАМ ПОДАРКИ ОТ ПРОЕКТА
"ГИТАРНАЯ РЕВОЛЮЦИЯ"