Gitaristu.ru
Аккорды Табулатура Начинающим Мастер-класс Софт Видео
Новости Анонсы Гитары Гитаристы Статьи Аватарки Минусовки
Поиск



Популярные подборы




Настройка гитары






Главная > Аккорды > К > Кино

Аккорды
Кино
-
Звезда по имени Солнце (1)

Не нашли аккорды к песне? Посмотрите на


Подбор прислал: gitaristu.ru
Мелодия:

1,2 куплет:

1|-8-7-5-----------------------5----------------------------------------
2|--------5---5--5-5-5-8-8-8-8---5--5-5-5---------5------------5--------
3|----------8-----------------------------7-7-7-7---7--7-7-7-7---7------  
4|---------------------------------------------------------------------- 
5|----------------------------------------------------------------------
6|----------------------------------------------------------------------


1|-------------------------5------------------------------
2|---------------------------5----------------------------
3|-7-7-7-5-7-7-7-5-7-5-5-5--------------------------------
4|-----------------------------7-------------------------- 
5|--------------------------------------------------------  
6|--------------------------------------------------------

  3 куплет:
 
 
1|-8-7-5------------------------5---------------------------------------
2|-------5---8-5--5-5-5-8-8-8-8---5--5-5-5---------5------------5-------
3|---------8-------------------------------7-7-7-7---7--7-7-7-7---7-----    
4|---------------------------------------------------------------------- 
5|----------------------------------------------------------------------
6|----------------------------------------------------------------------


1|-------------------------3------------------------------
2|---------------------------3----------------------------
3|-5-5-5-3-5-5-5-3-5-3-3-3--------------------------------
4|-----------------------------7-------------------------- 
5|--------------------------------------------------------  
6|--------------------------------------------------------

Проигрыш между куплетами:

F Am

F:

1|-1-------
2|-1-------
3|-0-------
4|-x------- 
5|-x-------  
6|-x-------

Другие подборы этого исполнителя

Расскажи друзьям!




Привет, гитарист!

Пройди супер-курс по гитаре и порази всех своей игрой!

Забрать курс!
ВАМ ПОДАРКИ ОТ ПРОЕКТА
"ГИТАРНАЯ РЕВОЛЮЦИЯ"