Gitaristu.ru
Аккорды Табулатура Начинающим Мастер-класс Софт Видео Форум Блог
Новости Анонсы Гитары Гитаристы Статьи Аватарки Минусовки
Поиск





Популярные подборы




Настройка гитары






Главная > Аккорды > Н > Несчастный случай

Аккорды
Несчастный случай
-
Генералы песчаных карьеров

Не нашли аккорды к песне? Посмотрите на


Подбор прислал: gitaristu.ru
e|-------------|-------------|-------------|-------------|
B|-------------|-------------|-------------|-------1--3--|
G|-------------|-------------|-------------|----2--------|
D|-------------|-------------|-------------|-------------|
A|-------------|-------------|-------------|-------------|
E|-------------|-------------|-------------|-------------|

e|-0-----------|-------0-----|-------------|-------0-----|
B|----3--1--0--|----------1--|-3-----3-----|-3--1-----3--|
G|-------------|-2--2--------|----2-----2--|-------------|
D|-------------|-------------|-0-----------|-------------|
A|-0-----------|-0-----------|-------------|-------------|
E|-------------|-------------|-------------|-------------|

e|-------------|-------------|-------------|-0-----------|
B|-1-----1-----|-1--1--3--1--|-0--------0--|-------1--3--|
G|----0-----0--|-------------|-------1-----|----2--------|
D|-------------|-------------|----2--------|-------------|
A|-3-----------|-------------|-------------|-------------|
E|-------------|-------------|-0-----------|-------------|

e|-0-----------|-------5-----|-3-----------|----0--5--3--|
B|----3--1--0--|----------5--|-------0-----|-0-----------|
G|-------------|-2--2--------|----0-----0--|-------------|
D|-------------|-------------|-------------|-------------|
A|-0-----------|-0-----------|-------------|-------------|
E|-------------|-------------|-3-----------|-------------|

e|-1-----------|-------3--1--|-0-----------|-0-----------|
B|-------1-----|-1--3--------|----------0--|-------1--3--|
G|----0-----0--|-------------|-------1-----|----2--------|
D|-------------|-------------|----2--------|-------------|
A|-3-----------|-------------|-------------|-------------|
E|-------------|-------------|-0-----------|-------------|

e|-0-----------|-------0-----|-------------|-------0-----|
B|----3--1--0--|----------1--|-3-----3-----|-3--1-----3--|
G|-------------|-2--2--------|----2-----2--|-------------|
D|-------------|-------------|-0-----------|-------------|
A|-0-----------|-0-----------|-------------|-------------|
E|-------------|-------------|-------------|-------------|

e|-------------|-------------|-------------|-------------|
B|-1--0--3--1--|-0-----1 р0--|-------------|-------------|
G|-------------|-------------|-2-----------|-------------|
D|-------------|----2--------|-------------|-------------|
A|-3-----------|-------------|-0-----------|-------------|
E|-------------|-0-----------|-------------|-------------|

        Dm
Я начал жизнь в трущобах городских,
           E
И добрых слов я не слыхал.
          G7
Когда ласкали вы детей своих-
           E
Я есть просил, я замерзал.
       Dm
Вы увидав меня не прячьте взгляд
             Am
Ведь я ни в чем, ни в чем не виноват.

Проигрыш.

За что вы бросили меня, за что?
Где мой очаг? Где мой ночлег?
Не признаете вы мое родство,
А я вам брат, я человек.
Вы вечно молитесь своим богам,
И ваши боги все прощают вам.

Проигрыш.

Край небоскребов и шикарных вилл,
Из окон льет слепящий свет.
О, если б мне хоть раз набраться сил,
Вы б дали мне за все ответ.
Откройте двери, люди, я ваш брат
Ведь я ни в чем, ни в чем не виноват.

Проигрыш.

Вы знали ласки матерей родных,
А я не знал и лишь во сне,
В моих мечтаньях детских золотых
Мать иногда являлась мне.
О мама если бы найти тебя,
Была б не так горька моя судьба.

Играть на первой струне:

E|--0-3-5-7-5-3-2-0-7-5-0-7-5-3-0-5-3-2------|
E|--0-3-5-7-5-3-2-0-12-10-12-10-8-10-8-7-----|
E|--0-3-5-7-5-3-2-0-7-5-0-7-5-3-0-5-3-2-3-0--|
Расскажи друзьям!




Войдите, используя Ваш аккаунт:



Забыли пароль?
Зарегистрироваться

Привет, гитарист!

Пройди супер-курс по гитаре и порази всех своей игрой!

Забрать курс!
ВАМ ПОДАРКИ ОТ ПРОЕКТА
"ГИТАРНАЯ РЕВОЛЮЦИЯ"