Gitaristu.ru
Аккорды Табулатура Начинающим Мастер-класс Софт Видео Форум Блог
Новости Анонсы Гитары Гитаристы Статьи Аватарки Минусовки
Поиск





Популярные подборы




Настройка гитары






Главная > Аккорды > Н > Несчастный случай

Аккорды
Несчастный случай
-
Генералы песчаных карьеров (4)

Не нашли аккорды к песне? Посмотрите на


Подбор прислал: gitaristu.ru
        Am                    Dm 
Я начал жизнь в трущобах городских
         C            E
И добрых слов я не слыхал.
         Am               G7
Когда ласкали вы детей своих,
          C           E
Я есть просил, я замерзал...
       Am                   Dm
Но, увидав меня, не прячьте взгляд,
            C                E   Am
Ведь я ни в чём, ни в чём не виноват.

За что вы бросили меня, за что
Где мой очаг, где мой ночлег
Не признаёте вы моё родство,
А я ваш брат, я человек...
Вы вечно молитесь своим богам,
И ваши боги всё прощают вам.

Край небоскрёбов и роскошных вилл,
Из окон льёт слепящий свет.
О, если б мне хоть раз набраться сил,
Вы дали б мне за всё ответ.
Откройте двери, люди, я ваш брат.
Ведь я ни в чём, ни в чём не виноват.

Вы знали ласки матерей родных,
А я не знал. И лишь во сне
В моих мечтаньях детских золотых
Мать иногда являлась мне.
О, мама, если бы найти тебя 
Была б не так горька моя судьба...


                   Am                Dm
-----------------|-0-----------0---|-------------0---|
-------------1-3-|---3-1-0-------1-|-3---3---3-1---3-|
-----------2-----|---------2-2-----|---2---2---------|
-----------------|-----------------|-0---------------|
-----------------|-0-------0-------|-----------------|
-----------------|-----------------|-----------------|

 C                 E                 Am
-----------------|---------0-------|-0-----------5---|
-1---1---1-1-3-1-|-0-----0-----1-3-|---3-1-0-------5-|
---0---0---------|-----1-----2-----|---------2-2-----|
-----------------|---2-------------|-----------------|
-3---------------|-----------------|-0-------0-------|
-----------------|-0---------------|-----------------|

 G7                C                 E
-3---------0-5-3-|-1-----------3-1-|-0-------0-------|
-----0---0-------|-----1---1-3-----|-------0-----1-3-|
---0---0---------|---0---0---------|-----1-----2-----|
-----------------|-----------------|---2-------------|
-----------------|-3---------------|-----------------|
-3---------------|-----------------|-0---------------|

 Am                Dm                C       E         Am
-0-----------0---|-------------0---|-----------------|---
---3-1-0-------1-|-3---3---3-1---3-|-1-0-3-1-0---1-0-|---
---------2-2-----|---2---2---------|-----------------|-2-
-----------------|-0---------------|-----------2-----|---
-0-------0-------|-----------------|-3---------------|-0-
-----------------|-----------------|---------0-------|---
Расскажи друзьям!




Войдите, используя Ваш аккаунт:



Забыли пароль?
Зарегистрироваться

Привет, гитарист!

Пройди супер-курс по гитаре и порази всех своей игрой!

Забрать курс!
ВАМ ПОДАРКИ ОТ ПРОЕКТА
"ГИТАРНАЯ РЕВОЛЮЦИЯ"