Gitaristu.ru
Аккорды Табулатура Начинающим Мастер-класс Софт Видео Форум Блог
Новости Анонсы Гитары Гитаристы Статьи Аватарки Минусовки
Поиск





Популярные подборы




Настройка гитары






Главная > Аккорды > Н > Несчастный случай

Аккорды
Несчастный случай
-
Генералы песчаных карьеров (6)

Не нашли аккорды к песне? Посмотрите на


Подбор прислал: gitaristu.ru

1|-------0---------0---|--0-------------|------0---------5-3-
2|---1-3---3-1-0-----3-|3---3-1-1-3-1-0-|--1-3---3-1-0-------
3|-2-------------2-----|----------------|2-------------2-----
4|---------------------|----------------|--------------------
5|---------------------|----------------|--------------------
6|---------------------|----------------|--------------------

  |-3-5-3-1-1-3-1-0-|-------0---------0--|---0-----------------|
  |-----------------|---1-3---3-1-0-----3|-3---3-1-0-3-1-0-1---|
  |-----------------|-2-------------2----|-------------------2-|
  |-----------------|--------------------|---------------------|
  |-----------------|--------------------|---------------------|
  |-----------------|--------------------|---------------------|

Я начал жизнь в трущобах городских
И добрых слов я не слыхал
Когда ласкали вы детей сваих
Я есть просил Я замерзал
Вы увидав меня не прячьте взгляд
Ведь я ни в чем ни в чем не виноват

За что вы бросили меня за что
Где мой очаг где мой ночлег
Не признаете вы мое родство
А я ваш брат я человек
Вы вечно молитесь своим богам
И ваши боги все прощают вам

Край небоскребов и роскошных вилл
Из окон бьет слепящий свет
О если б мне хоть раз набраться сил
Вы дали б мне за все ответ
Откройте двери люди я ваш брат
Ведь я ни в чем ни в чем не виноват

Вы знали ласки матерей родных 
А я не знал и лишь во сне 
В моих мечтаньях детских золотых 
Мать иногда являлась мне
О мама если б мне найти тебя 
Была б не так горька моя судьба   
Расскажи друзьям!




Войдите, используя Ваш аккаунт:



Забыли пароль?
Зарегистрироваться

Привет, гитарист!

Пройди супер-курс по гитаре и порази всех своей игрой!

Забрать курс!
ВАМ ПОДАРКИ ОТ ПРОЕКТА
"ГИТАРНАЯ РЕВОЛЮЦИЯ"