Gitaristu.ru
Аккорды Табулатура Начинающим Мастер-класс Софт Видео Форум Блог
Новости Анонсы Гитары Гитаристы Статьи Аватарки Минусовки
Поиск





Популярные подборы




Настройка гитары






Главная > Аккорды > П > Песни про любовь

Аккорды
Песни про любовь
-
Хочу жить в Западной Европе

Не нашли аккорды к песне? Посмотрите на


Подбор прислал: gitaristu.ru
e|-------------------------------------------------------------------
b|-------------------------------------------------------------------
g|-7-7-7-7-9-7-9-7-7-7-7-9-7-9---------------------------------------
D|-7-7-7-7-9-7-9-7-7-7-7-9-7-9-9-9-9-9-11-9-11-7-7-7-7-7~9-7---------
A|-5-5-5-5-7-5-7-5-5-5-5-7-5-7-9-9-9-9-11-9-11-7-7-7-7-7~9-7---------
E|-----------------------------7-7-7-7-9--7-9--5-5-5-5-5~7-5---------
         (этот riff играть очень быстро)
Solo
e|-------------------------------------------------------------------
b|-------------------------------------------------------------------
g|-7-7-7-7-9-7-9-7-7-7-7-9-7-9-4-4-4-4-6-4-6-2-2-2-2-2-4-2-----------
D|-------------------------------------------------------------------
A|-------------------------------------------------------------------
E|-------------------------------------------------------------------
          (играть изгибая струну)

Riff
Пусть тебе 15.
Ты его выбрала.
Ему 18.
У него есть машина.
Рулезная шина.
А мне 16.
С виду 14.
Ему с виду все 20.
Я горюю, переживаю.
Очень больно.
Курю, и пью.(из-за этого)
Я скоро, умоюсь.
В Западную Европу.
Solo
припев:
Ах как хочу я жить в Западной Европе 
Хочу жить в Западной Европе 
Подальше, от всех.

Мне всегда вечно, по жизни не везёт.
Меня в Европу западную друг заберёт.

припев:(для двух гитар, ритм и солло одновременно)
Ах как хочу я жить в Западной Европе 
Хочу жить в Западной Европе 
Подальше, от всех 
Расскажи друзьям!




Войдите, используя Ваш аккаунт:



Забыли пароль?
Зарегистрироваться

Привет, гитарист!

Пройди супер-курс по гитаре и порази всех своей игрой!

Забрать курс!
ВАМ ПОДАРКИ ОТ ПРОЕКТА
"ГИТАРНАЯ РЕВОЛЮЦИЯ"