Gitaristu.ru
Аккорды Табулатура Начинающим Мастер-класс Софт Видео Форум Блог
Новости Анонсы Гитары Гитаристы Статьи Аватарки Минусовки
Поиск





Популярные подборы




Настройка гитары






Главная > Аккорды > П > Песни про любовь

Аккорды
Песни про любовь
-
Мама

Не нашли аккорды к песне? Посмотрите на


Подбор прислал: gitaristu.ru
Песня играется простым перебором, так называемым арпеджио, по желанию можно играть 
последние 2 куплета медленным боем, и в конце песни ,на слове мама, 
провести рукой по струнам... вот и все. Ритм не быстрый.

        Am
1|----------0----------
2|------0-------0-----
3|----0--0---0--0----
4|--0------------------
5|----------------------
6|----------------------

        Em
1|----------0----------
2|------0-------0-----
3|----0--0---0--0----
4|----------------------
5|--0------------------
6|----------------------

         C
1|----------0----------
2|------0-------0-----
3|----0--0---0--0----
4|----------------------
5|--0------------------
6|----------------------

       Am ( так Am играется в конце каждого куплета)
1|----------0----------
2|------0-------0-----
3|----0--0---0--0----
4|----------------------
5|---0-----------------
6|----------------------


Am       Em
Мама, люблю тебя
C         Am
Мама, прости меня
F                         C
Прошу тебя, дай руку помощи,
Em                          Am
Помоги встать и направить в светлый путь

Проигрыш: Am, Em, C, Am


Маму я вспоминаю, 
Маму прошу пройти ко мне,
Маму хочу обнять, 
Крепко в руки взять и не отпускать.

Я жду тебя когда придешь
Обнимешь крепко и все поймешь,
Но ты далеко и ждать бессмысленно,
Остался один на всем белом свете я.

Я не знаю как мне быть
Взять вот так тебя забыть
Нет тебя со мной мне очень плохо,
Я люблю тебя – Мама 


Посвещается девчонкам из 205-й школы,
города Москвы Савеловского района.
(Даше П., Маше А. и Коньковой Ю.)
Расскажи друзьям!




Войдите, используя Ваш аккаунт:



Забыли пароль?
Зарегистрироваться

Привет, гитарист!

Пройди супер-курс по гитаре и порази всех своей игрой!

Забрать курс!
ВАМ ПОДАРКИ ОТ ПРОЕКТА
"ГИТАРНАЯ РЕВОЛЮЦИЯ"