Gitaristu.ru
Аккорды Табулатура Начинающим Мастер-класс Софт Видео Форум Блог
Новости Анонсы Гитары Гитаристы Статьи Аватарки Минусовки
Поиск





Популярные подборы




Настройка гитары






Главная > Аккорды > П > Песни про любовь

Аккорды
Песни про любовь
-
Наша

Не нашли аккорды к песне? Посмотрите на


Подбор прислал: gitaristu.ru
Вступление(Проигрыш):
     C                                     
E||--------------------------------------|
B||--------------------------------------|
G||--------0--------0--------0--------0--|
D||-----2--------2--------0--------0-----|
A||--3--------3--------2--------2--------|
E||--------------------------------------|

  Am
|---------0-------|
|-----1-------1---|
|---2---2---2---2-|
|-----------------|
|-0---------------|
|-----------------|


Голос вступает на Am        Куплет:
  Am                         Dm                             
--------------0-----------||--------------1-----------|
--------1-----------1-----||--------3-----------3-----|
-----2-----2-----2-----2--||.----2-----2-----2-----2--|
--------------------------||.-0-----------------------|
--0-----------------------||--------------------------|
--------------------------||--------------------------|


  G                          C                          
--------------3-----------|--------------------------|
--------0-----------0-----|--------1-----------0-----|
-----0-----0-----0-----0--|-----0-----0-----0-----0--|
--------------------------|--------------------------|
--------------------------|--3-----------2-----------|
--3-----------------------|--------------------------|


  Am                            
--------------0-----------||
--------1-----------1-----||
-----2-----2-----2-----2-.||
-------------------------.||
--0-----------------------||
--------------------------||

Припев Лучше играть боем(Аккорды такие же).
Dm, G, C , Am 

 000020 (типа второй лад на 5-ой струне только)

Поется от души 

Куплет1:

Нам никогда уже не быть
С тобою вместе как тогда,
Когла летали мы вдвоем 
На белоснежных простынях

И я ласкал тебя рукой,
А ты желанья не тая,
Не говорила мне постой,
А говорила: Я твоя .

Припев: (2 раза, если не надоест)

А мы соседи уж давно
И не разлучит нас судьба,
А я мечтал ходить в кино,
Ведь я любил тебя всегда.

Проигрыш:...
Куплет2:

Оборвалась моя мечта,
И я покинул край родной,
Ведь мы в разлуке навсегда,
И уж не свижусь я с тобой,

Но буду помнить до конца 
Счастливый блеск в твоих глазах,
Когла дыханье затая,
Сидели молча у костра.

Припев:...
Проигрыш:...
Куплет3:...

И в этот день прошу прийди,
Прости меня в который раз,
Я не хочу тебя терять,
И просьб моих истек запас...

Теперь можно проиграть перебором 2-ю часть Куплета3
И плавно замедляя темп сыграть как в Don't Cry:

|--------------1-----------|--------------3-----------|
|--------3-----------3-----|--------0-----------0-----|
|-----2-----2-----2-----2--|-----0-----0-----0-----0--|
|--0-----------------------|--------------------------|
|--------------------------|--------------------------|
|--------------------------|--3-----------------------|

|-------------------|
|-------------------|
|-----0-----0-------|
|---0-----0---------|
|-3-----2-----3-2-0-|
|-------------------|
Расскажи друзьям!




Войдите, используя Ваш аккаунт:



Забыли пароль?
Зарегистрироваться

Привет, гитарист!

Пройди супер-курс по гитаре и порази всех своей игрой!

Забрать курс!
ВАМ ПОДАРКИ ОТ ПРОЕКТА
"ГИТАРНАЯ РЕВОЛЮЦИЯ"