Gitaristu.ru
Аккорды Табулатура Начинающим Мастер-класс Софт Видео Форум Блог
Новости Анонсы Гитары Гитаристы Статьи Аватарки Минусовки
Поиск





Популярные подборы




Настройка гитары






Главная > Аккорды > П > Песни про любовь

Аккорды
Песни про любовь
-
Почему ты бросилась к другому

Не нашли аккорды к песне? Посмотрите на


Подбор прислал: gitaristu.ru
      Перебор к песне :
       1,5 сторочка       2,6строчка  3,7строчка
     1------------------------------------------------3-5-6--------
     2--------0--------5--------3-----2------3-3-4-5---------
     3------6--------6--------3------0----------------------------
     4----7--------7--------5------4------------------------------
     5--7--------7--------5-------5-------------------------------
     6---------------------------------------------------------------
       4,8строчка
      1----0---------1-------3--
      2---1---------3-------0---
      3--2---------2-------0----
      4-2--------0--------0-----
      5--------------------------
      6 -------------------------
 

   1 куплет 
   Тебя со мною рядом нет 
   Мы не увидимся еще полчаса,
   А может быть и пару лет 
   Я не увижу твои глаза .
   Ты далеко я это знаю
   Мне не вернуть былую страсть,
   Но ты пойми моя родная 
   Я буду потебе скучать .
  
                 
  Припев :
                  Am(без барэ)F                       Dm
                  Подожди на улице идут дожди
                  G(без барэ)F#                                 Hm
                  Не уходи промокнешь от былой люви
                  G(с барэ)                  Cm
                  Только я не всилах предсказать
                  Em        C                     G(без барэ)
                  Почему ты бросилась к другому   - повторить два раза
  
   2 куплет  
   Нас разлучают горы и моря .
   Ты где-то там паришь во мраке сизом ,
   А я один сижу и думаю о том ,
   Что когда-то были мы вдвоем
   Ты и я , едино цело ,
   Гуляли где-то внебесах
   Но теперь гуляешь ты сдругим 
   И на века все  позабыла
   
 
Припев :     

3 куплет
Может быть я не так
Хорош как он
НО...(проигрыш)
Чего нет во мне
А что есть у другого
Почему ты ,
А не я
(просто доиграть оставшеюся частть )

Припев :     


P.S.  Песня легкая с первого разу не получиться ,  
так пробуйте больше играть , и ка можно быстрее.
Припев играется медленно.
Расскажи друзьям!




Войдите, используя Ваш аккаунт:



Забыли пароль?
Зарегистрироваться

Привет, гитарист!

Пройди супер-курс по гитаре и порази всех своей игрой!

Забрать курс!
ВАМ ПОДАРКИ ОТ ПРОЕКТА
"ГИТАРНАЯ РЕВОЛЮЦИЯ"