Gitaristu.ru
Аккорды Табулатура Начинающим Мастер-класс Софт Видео Форум Блог
Новости Анонсы Гитары Гитаристы Статьи Аватарки Минусовки
Поиск





Популярные подборы




Настройка гитары






Главная > Аккорды > П > Пицца

Аккорды
Пицца
-
Вторник



Подбор прислал: gitaristu.ru
Вступление:
E-----------9----------9----------9----------9----------------------12---------12---------12-----------12
H-----10---------10---------10---------10--------------------9-----------9------------9--------------9
 
E-----------9----------9----------9----------9----------------------12---------12---------12-----------12
H-----10---------10---------10---------10--------------------9-----------9------------9--------------9

1-й куплет:
E-----------9----------9----------9----------9----------------------12---------12---------12-----------12
H-----10---------10---------10---------10--------------------9-----------9------------9--------------9
Обыкновенный вторник - самый незаметный день.

E-----------9----------9----------9----------9----------------------12---------12---------12-----------12
H-----10---------10---------10---------10--------------------9-----------9------------9--------------9
Был, как будто не был, плыл и вяло утонул в среде.

                    A
Я заведу мотор, на кольце затор. 
                      D
Дорога не восторг, но на метро - не то. 
               E
Еду я домой. Еду, еду, а кругом метет метель.

A
Я звонил тебе днем, просто так...
                C#m
- Алё? Привет!
- Алё! Привет!

C#m
Я звонил весь день, но длинные гудки в ответ.
                  D
Номер наберу и снова не берут. Где же ты, мой друг?

Где, где ты, добрый друг? 
                E
Нападает грусть и безнадежно впереди стоит проспект.

Припев:
             E
Мы с тобою никогда не постареем,
         E
Если сможем иногда быть добрее!
         F#m  
Открывай, скорее, у дверей я.
E
У дверей я.

2-й куплет:
                                C#m
Мы как будто вновь вместе, такой я видел сон вчера.
   C#m
А у меня всё песни, и это не совсем игра.
                     D 
И горе - не беда, и годы - города, и горы - высота, и я хочу туда. 
                   E
И ты хотела так, но что-то сбилось и остановился шаг.

C#m
    Не постоянно время, не ровен час.
C#m
    Прошу, не дай ему все решить за нас.
                     F#m
Несколько минут... Годы не вернут,
                             D
Но можем мы вдвоем в них просто заглянуть.
                   E
И к этому окну, так спешил я, может быть в последний раз.

Припев:
             E
Мы с тобою никогда не постареем,
         E
Если сможем иногда быть добрее!
         F#m  
Открывай, скорее, у дверей я.
E
У дверей я.

            E
Мы с тобою никогда не постареем,
         E
Если сможем иногда быть добрее!
         F#m  
Открывай, скорее, у дверей я.
D
У дверей я.
       D
Открывай, скорее, у дверей я.

   C#m
Обыкновенный вторник - самый незаметный день.


Расскажи друзьям!




Войдите, используя Ваш аккаунт:



Забыли пароль?
Зарегистрироваться

Привет, гитарист!

Пройди супер-курс по гитаре и порази всех своей игрой!

Забрать курс!
ВАМ ПОДАРКИ ОТ ПРОЕКТА
"ГИТАРНАЯ РЕВОЛЮЦИЯ"