Gitaristu.ru
Аккорды Табулатура Начинающим Мастер-класс Софт Видео Форум Блог
Новости Анонсы Гитары Гитаристы Статьи Аватарки Минусовки
Поиск





Популярные подборы




Настройка гитары






Главная > Аккорды > П > Пилот

Аккорды
Пилот
-
100 000 номеров (2)

Не нашли аккорды к песне? Посмотрите на


Подбор прислал: gitaristu.ru
Am
Знают мои глаза
F7          G
Сотни тысяч номеров квартир.
Am
Кованы замки,
C (C7)        G
Щедрые столы, да все не нам.
Am
На памяти моей
F7          G
Сколько телефонов полегло.
Am
На обочинах дорог,
C (C7)        G
Мятые бумажки ныряли в снег.
Am
ааааааааа...
F7          G
Мятые бумажки ныряли в снег.
Am
ааааааааа...
C (C7)        G
Мятые бумажки ныряли в снег.


Проигрыш:
Am   F7   G   Am   C   G


А в полосе,
Примятая трава, да саранча.
Давятся моим
Хлебом, метким словом за любовь.
А все к тому
Что не рано на сердце тоска
Два седых виска,
Пуля в голове, черная кровь.
ааааааааа...
Пуля в голове, черная кровь.
ааааааааа...
Пуля в голове, черная кровь.


Типа соло:

1|----------------------------------------------------------------
2|----------------------------------------------------------------
3|----------------------------------------------------------------
4|-----------5-5-5-7-5-------7----------------------------------
5|-7-7-7-5-7-----------8-7-5------7-7-7-5-7-------------------
6|------------------------------------------8-8-8-8-10-8-7-5-5-

1|----------------------------------------------------------------
2|----------------------------------------------------------------
3|----------------------------------------------------------------
4|-----------5-5-5-7-5-------7----------------------------------
5|-7-7-7-5-7-----------8-7-5------7-7-7-5-7-------------------
6|------------------------------------------8-8-8-8-10-8-7-5-7-....


Hm
Я бы рассказал
G           A
Да не знаю, нужно ли тебе...
Hm
Грязь моих подошв,
D          A
Скоренькая жизнь, пустой карман.
Hm
Надпись на стене,
G           A
Про любовь мальчишки со двора.
Hm
Может я не тех,
D          A
Кого было нужно хоронил...
Hm
ааааааааа...
G          A
Кого было нужно хоронил...
Hm
ааааааааа...
D          A
К
Кого было нужно хоронил...


То же соло, только на два лада выше.


Подтянуть штаны,
Расстегнуть рубаху и простить
Всех, кто мне мешал,
Тех, кто на меня свой зуб точил.
За грузовики,
Пальцем не цепляясь, уходил.
Крючья не держал
В сердце тех, кто мне махал рукой.
ааааааааа...
В сердце тех, кто мне махал рукой.
ааааааааа...
В сердце тех, кто мне махал рукой.


Проигрыш:
Hm   G   A   Hm   D   A


З.Ы. Тем, кто песню в оригинале не слышал, петь не советую,
т.к. вокал довольно специфичен :)

З.З.Ы. Если песня не играется, настройте под гитару Черта. (по Am)
Расскажи друзьям!




Войдите, используя Ваш аккаунт:



Забыли пароль?
Зарегистрироваться

Привет, гитарист!

Пройди супер-курс по гитаре и порази всех своей игрой!

Забрать курс!
ВАМ ПОДАРКИ ОТ ПРОЕКТА
"ГИТАРНАЯ РЕВОЛЮЦИЯ"