Gitaristu.ru
Аккорды Табулатура Начинающим Мастер-класс Софт Видео Форум Блог
Новости Анонсы Гитары Гитаристы Статьи Аватарки Минусовки
Поиск





Популярные подборы




Настройка гитары






Главная > Аккорды > П > Пилот

Аккорды
Пилот
-
7 часов утра

Не нашли аккорды к песне? Посмотрите на


Подбор прислал: gitaristu.ru
проигрыш:  Hm   G F#

это не стопроцентный подбор, но очень похоже 

 Hm                          G              F#
|-------------------------------------------------------|
|-------------------------------------------------------|
|-------------------------------------------------------|
|------4-4----------4-4---------------------------------|
|--2--2----5-5--2--2----5-3------5-5--2-2------4-2------|
|----------------------------3--3----------2--2---5-5---|

|-------------------------------------------------------|
|-------------------------------------------------------|
|-----------------------------------------------------4-|
|------4-4----------5-4---------------------------------|
|--2--2----5-5--2--2----5-3------5-5--2-2------4-2------|
|----------------------------3--3----------2--2---5-----|


  Hm                     C   F#
Мимо окон чужих сам не свой,
   Hm                       C   F#
Ветер в шею, по льду иду домой.
   Hm                 C               F#
Подскользнусь, упаду, под деревьями оставлю
Hm          G
Свой злой смех,
 Em        F#           Hm          G
Все давно хотели, чтобы я ушел от всех.
 Em         F#       Hm           E
Вот и прилетела с красным пером стрела,
   Cm#              F#
Ткнула в грудь, не промазала.

Знаю, сила моя всегда со мной,
В кармане ключ от двери золотой.
Напьюсь  Сяду в вагон,
И поедет поезд далеко,
Где кто-то также смотрит
На мир в свое окно,
И не может вспомнить
Насколько память зла 
Все забрала и на ходу спрыгнула.

Собери в мешок все что есть.
Можем на дорожку присесть.
7 часов утра - все спят,
Мы с тобой уходим,
В спину нам свистят
И кидают камни.
Забудут и простят,
Заколотят двери
И вырастет трава,
Через час скошенная.
Расскажи друзьям!




Войдите, используя Ваш аккаунт:



Забыли пароль?
Зарегистрироваться

Привет, гитарист!

Пройди супер-курс по гитаре и порази всех своей игрой!

Забрать курс!
ВАМ ПОДАРКИ ОТ ПРОЕКТА
"ГИТАРНАЯ РЕВОЛЮЦИЯ"