Gitaristu.ru
Аккорды Табулатура Начинающим Мастер-класс Софт Видео Форум Блог
Новости Анонсы Гитары Гитаристы Статьи Аватарки Минусовки
Поиск





Популярные подборы




Настройка гитары






Главная > Аккорды > П > Пилот

Аккорды
Пилот
-
Братишка

Не нашли аккорды к песне? Посмотрите на


Подбор прислал: gitaristu.ru
СОЛО:

e|-10-12~-15-10~--5~--8-7~--12~-15-10~----------
B|----------------------------------------------
G|----------------------------------------------
D|----------------------------------------------
A|----------------------------------------------
E|----------------------------------------------

e|-------0-1-3-1-3-5-3-5-7-5-7-8-10-10/12~------
B|-3-5-6----------------------------------------
G|-----------------------------------------9~---
D|----------------------------------------------
A|----------------------------------------------
E|----------------------------------------------

(С) Papihlapinatapai
Расскажи друзьям!




Войдите, используя Ваш аккаунт:



Забыли пароль?
Зарегистрироваться

Привет, гитарист!

Пройди супер-курс по гитаре и порази всех своей игрой!

Забрать курс!
ВАМ ПОДАРКИ ОТ ПРОЕКТА
"ГИТАРНАЯ РЕВОЛЮЦИЯ"