Gitaristu.ru
Аккорды Табулатура Начинающим Мастер-класс Софт Видео Форум Блог
Новости Анонсы Гитары Гитаристы Статьи Аватарки Минусовки
Поиск





Популярные подборы




Настройка гитары






Главная > Аккорды > П > Пилот

Аккорды
Пилот
-
Дом на реке (1)

Не нашли аккорды к песне? Посмотрите на


Подбор прислал: gitaristu.ru
Intro
1|--7-8-7-5-3-2
2|--7-8-7-5-3-2
3|-------------
4|-------------
5|--7-8-7-5-3-2
6|--7-8-7-5-3-2

Играется песня так.
Am
1|----0-0----0-0-
2|----1-1----1-1-
3|----2-2----2-2-
4|---------2-----
5|--0------------
6|---------------
C
1|----0-0----0-0-
2|----1-1----1-1-
3|----0-0----0-0-
4|---------2-----
5|--3------------
6|---------------
Dm
1|----1-1----1-1-
2|----3-3----3-3-
3|----2-2----2-2-
4|--0------------
5|---------0-----
6|---------------
E
1|--------0------
2|------0---0----
3|----1-------1--
4|---------------
5|---------------
6|--0------------0-2-3


     Am            C
Там вдалеке, на желтой реке,
            Dm
Покрытой туманом,
   Am                 C
Дом мой стоит. Невзрачный на вид.
        Dm
Там я и останусь,
     E
На желтой, на желтой реке...

А ты все следишь, крадешься как мышь,
Ты хочешь увидеть реку и дом
С накрытым столом.
Ты хочешь увидеть реку, туман и дом.

   A7                           D
А утром тебя найдут озябшим и жалким 
     G                             E
А утром тебя найдут с прокушенным горлом 
           Am                    C
Так будет с каждым. Так будет с каждым,
    D        Dm               E 
Кто знал, но шел за мной, за мной, за мной,
              Am
За мной по пятам...
Расскажи друзьям!




Войдите, используя Ваш аккаунт:



Забыли пароль?
Зарегистрироваться

Привет, гитарист!

Пройди супер-курс по гитаре и порази всех своей игрой!

Забрать курс!
ВАМ ПОДАРКИ ОТ ПРОЕКТА
"ГИТАРНАЯ РЕВОЛЮЦИЯ"