Gitaristu.ru
Главная > Аккорды > С > Синяя Птица

Аккорды
Синяя Птица
-
Клен


Подбор прислал: gitaristu.ru
музыка Ю.Акулова, слова Л.Шишко.

В оригинале песня игается в тональности ре-мажор(D, 2 диеза),
а с третьего куплета тональность повышается на полутон.
Но здесь я привожу аккорды в тональности до-мажор(С),
так проще играть. Тем, кому нужна оригинальная гармония - 
транспонируйте все аккорды на тон вверх (на два лада гитары).

Темп: ~70 bpm
Размер: 4/4
Тональность: С
Все гитары имеют стандартный строй ( E A D G B E )
Аккомпанимент ф-но аранжирован для гитары Gtr II

Обозначения в табулатуре
------------------------
 ~~  - vibrato
 p   - pull-off
 b   - bend
 r   - bend release

Вступление

Следующие два такта повторяются 2 раза

  Gtr I 
   ~~                           ~~
|----------------------------|----------------------------|
|-------13-15-15b17r13-------|-------13-15-15b17r13-------|
|-14-------------------14p13-|-14-------------------14p13-|
|----------------------------|----------------------------|
|----------------------------|----------------------------|
|----------------------------|----------------------------|
|
| Gtr II
|----------------------------|----------------------------|
|--1--1--------1--------1----|--1--1--------1--------0----|
|--2--2--------2--------2----|--2--2--------2--------1----|
|----------------------------|----------------------------|
|--0--0----------------------|----------------------------|
|--------------3--------3----|--2--2--------1--------0----|


           Am               F
Там, где клен шумит над речной волной
     Am           D
Говорили мы о любви с тобой
Dm            G            C
Облетел тот клен, в поле бродит мгла
Dm            Am       Dm   E Am
А любовь как сон стороной прошла
                  
Припев 
         Am       D        G        C
    А любовь как сон, а любовь как сон
         F        H7       Dm   E Am
    А любовь как сон стороной прошла
 
Сердцу очень жаль, что случилось так
Гонит осень в даль журавлей косяк
Четырем ветрам грусть-печаль раздам
Не вернется вновь это лето к нам
 
Припев
    Не вернется вновь, не вернется вновь
    Не вернется вновь это лето к нам
 
Ни к чему теперь за тобой ходить
Ни к чему теперь мне цветы дарить
Ты любви моей не смогла сберечь
Порасло травой место наших встреч
 
Припев
    Порасло травой, поросло травой
    Порасло травой место наших встреч


Другие подборы этого исполнителя

Расскажи друзьям!

Gitaristu.ru 2006-2014
[email protected]
Тексты всех песен принадлежат их правообладателям
Все тексты песен представлены исключительно в образовательных
целях, для обучения игре на гитаре
Все аккорды и тексты песен взяты из открытых источников
Контакты
Гостевая