Gitaristu.ru
Аккорды Табулатура Начинающим Мастер-класс Софт Видео
Новости Анонсы Гитары Гитаристы Статьи Аватарки Минусовки
Поиск



Популярные подборы




Настройка гитары






Главная > Аккорды > З > Земфира

Аккорды
Земфира
-
Не отпускай

Не нашли аккорды к песне? Посмотрите на


Подбор прислал: gitaristu.ru
Hm
Над моей пропастью, у самой лопасти
           F#
Кружатся глобусы, старые фокусы.
          Em
Я же расплакалась, я не железная,
       F#
Мама Америка   в двадцать два берега

Припев:

Припев:Riff:
arpeggi
B|-4Н5-5-5-3-3-2-0-2-4Н5-5-5-3-3-2-----4Н5--5-5-3---3-2-0-2--7-|
G|---------------------------------4-2-----------------------7-|
D|-----------------------------------------------------------7-|
A|-----------------------------------------------------------5-|

arpeggi
B|-4Н5-5-5-3-3-2-0-2-4Н5-5-5-3-3-2-----4Н5--5-5-3---3-2-0-2--7-|
G|---------------------------------4-2-----------------------7-|
D|-----------------------------------------------------------7-|
A|-----------------------------------------------------------5-|

            A
Ты не отпускай меня, не отпускай,
         B
Не отпускай меня - вдруг кто увидит.
Ты не отпускай меня, не отпускай,
Не отпускай меня - вдруг кто увидит.

       Hm
Вечная юная, сразу за дюнами
           F#
Ждет тебя парусник мною придуманный.
              Em
Двадцать два месяца глобусы бесятся,
         F#
Люди прощаются, но не возвращаются

[Припев:]

         Hm
Голуби прячутся, в небо не хочется,
              F#
В списке не значится и значит не молится
         Em
Ты разбегаешься над моей пропастью,
          F#
После раскаешься и крыльями лопасти

[Припев:]

Solo:
B|------------------------------------------------------------|
G|--------------7-6-4-6-7-9-7--7-7-6---6---7-6----------------|
D|-/4-4p3Н4-6-7--------------------------------9-8---5\4-2-4--|
A|------------------------------------------------------------|

B|------------------------------------------------------------|
G|---9-6-7---6-7-6-6\5/6-8-9-\11-12-11-9---11Н12-12-14/16-14--|
D|-8-------8--------------------------------------------------|
A|------------------------------------------------------------|

B|--------------------------------------------------------|
G|--12-11/12\11-9---11---11/12-11-9-8---8-9-11-12-11-9-8--|
D|--------------------------------------------------------|

[Припев:]

Другие подборы этого исполнителя

Расскажи друзьям!




Привет, гитарист!

Пройди супер-курс по гитаре и порази всех своей игрой!

Забрать курс!
ВАМ ПОДАРКИ ОТ ПРОЕКТА
"ГИТАРНАЯ РЕВОЛЮЦИЯ"