Gitaristu.ru
Аккорды Табулатура Начинающим Мастер-класс Софт Видео
Новости Анонсы Гитары Гитаристы Статьи Аватарки Минусовки
Поиск



Популярные подборы




Настройка гитары






Главная > Аккорды > З > Зинчук Виктор

Аккорды
Зинчук Виктор
-
Полёт орла

Не нашли аккорды к песне? Посмотрите на


Подбор прислал: gitaristu.ru
Прислал: Шейкин Александр


E-------------------------------------------------------------
B-----------------------3-3---3-3-----------------------------
G-----------------2-4--4---4-4---4--4-2-0-2-0----2-0----------
D--2-1-4--4-5-4-5-----------------------------2------2--------
A-2-----------------------------------------------------------
E-------------------------------------------------------------


E-------------------------------------------------------------
B-----------------------3-3--5-3-5-3--------------------------
G-----------------2-4--4---4--------4--4-2-0-2-0----2-0-------
D--2-1-4--4-5-4-5-----------------------------2------2--------
A-2-----------------------------------------------------------
E-------------------------------------------------------------




E--------------------5-3-------------------------------5-3----
B---5-4/5-4/5-4/5--5-5-5-3--3-4-3------5-4/5-4/5-4/5-5-5-5-3--
G-4-5-4/5-4/5-4/5--5-----4--4-4-4-4--4-5-4/5-4/5-4/5-5-----4--
D-5-------------------------------5--5------------------------
A-------------------------------------------------------------
E------------------------------------------------------------- 


E-------------------------------------------------------------
B-------------------------------------------------------------
G-3-4-3-4--4-2-0-2-0--2-0-------------------------------------
D-4-4-4-5-----------------2-----------------------------------
A-------------------------------------------------------------
E-------------------------------------------------------------




E---0-0-0-0-0-0-0-0---------10-10--------10-10----------------
B---4-3-4-7-8-7-8-10-12--12-------12--12-------12--12-10------
G-4------------------------------------------------------12---
D-------------------------------------------------------------
A-------------------------------------------------------------
E-------------------------------------------------------------


E-------------------------------------------------------------
B-10----------------------------------------------------------
G----12-9-9/12------------------------------------------------
D-------------------------------------------------------------
A-------------------------------------------------------------
E-------------------------------------------------------------


E----------------------------10-10-----12-10-12-10------------
B---------------------12--12-------12--------------12---------
G---9-8-9-11-12-11-12-----------------------------------------
D-9-----------------------------------------------------------
A-------------------------------------------------------------
E-------------------------------------------------------------


E-------------------------------------------------------------
B-12-10-----10------------------------------------------------
G-------12-----12-9-9/12--------------------------------------
D-------------------------------------------------------------
A-------------------------------------------------------------
E-------------------------------------------------------------




E--------------------5-3-------------------------------5-3----
B---5-4/5-4/5-4/5--5-5-5-3--3-4-3------5-4/5-4/5-4/5-5-5-5-3--
G-4-5-4/5-4/5-4/5--5-----4--4-4-4-4--4-5-4/5-4/5-4/5-5-----4--
D-5-------------------------------5--5------------------------
A-------------------------------------------------------------
E------------------------------------------------------------- 


E-------------------------------------------------------------
B-------------------------------------------------------------
G-3-4-3-4--4-2-0-2-0--2-0-------------------------------------
D-4-4-4-5-----------------2-----------------------------------
A-------------------------------------------------------------
E-------------------------------------------------------------

Другие подборы этого исполнителя

Расскажи друзьям!




Привет, гитарист!

Пройди супер-курс по гитаре и порази всех своей игрой!

Забрать курс!
ВАМ ПОДАРКИ ОТ ПРОЕКТА
"ГИТАРНАЯ РЕВОЛЮЦИЯ"