Gitaristu.ru
Аккорды Табулатура Начинающим Мастер-класс Софт Видео
Новости Анонсы Гитары Гитаристы Статьи Аватарки Минусовки
Поиск



Популярные подборы




Настройка гитары






Главная > Аккорды > S > St Vincent

Аккорды
St Vincent
-
Human Racing (табулатура)

Не нашли аккорды к песне? Посмотрите на


Подбор прислал: gitaristu.ru
Capo 4

Note: This is not an exact version, it is simply based from perception. It is only the 
intro and verse but with some patience you could easily figure out the rest. The original 
is also slightly detuned

-------------------------------------------------------------------------------
                             Human Racing - St. Vincent
-------------------------------------------------------------------------------
Tabbed by: William
Email: nope

Tuning: Standard

Intro: Repeat 2x
e|-----------------------------------------------------------------------------|
B|--------------3p0---5---3---------3------------------------------------------|
G|----------0--------------------0---------------------------------------------|
D|------2----------------------------------------------------------------------|
A|---3-------------3---------3-------------------------------------------------|
E|-----------------------------------------------------------------------------|

Verse: Play both patterns twice
e|------------------------------------------------------------------------------|
B|---------0--------0----5--3p0-----0--0--------0-------2------2------2---------|
G|---------0--------0---------------0--0--------0-------0------0------0---------|
D|---------2--------2---------------2--2--------2-------2------2------2---------|
A|-----3-------3-3---------------3------------0-----0-0-----0-----0-------------|
E|------------------------------------------------------------------3-----------|

And so on and so forth...

************************************

| /   slide up
| \   slide down
| h   hammer-on
| p   pull-off
| ~   vibrato
| +   harmonic
| x   Mute note
| b   Bend
| pb  Pre-bend
| br  Bend release
| pbr Pre-bend release
| brb Bend release bend

************************************

Другие подборы этого исполнителя

Расскажи друзьям!




Привет, гитарист!

Пройди супер-курс по гитаре и порази всех своей игрой!

Забрать курс!
ВАМ ПОДАРКИ ОТ ПРОЕКТА
"ГИТАРНАЯ РЕВОЛЮЦИЯ"