Gitaristu.ru
Аккорды Табулатура Начинающим Мастер-класс Софт Видео Форум Блог
Новости Анонсы Гитары Гитаристы Статьи Аватарки Минусовки
Поиск





Популярные подборы




Настройка гитары






Главная > Аккорды > S > Saint Seiya

Аккорды
Saint Seiya
-
Pegasus Fantasy

Не нашли аккорды к песне? Посмотрите на


Подбор прислал: gitaristu.ru
Intro:

e|------------3--------------------------------|
B|--------4-------6---4--3-----3--4--3---------|
G|----5---------------------3-----------5--3---|
D|---------------------------------------------|
A|---------------------------------------------|
E|---------------------------------------------|

e|------------3-------------8------------------|
B|--------4-------6---4--3---------------------|
G|----5----------------------------------------|
D|---------------------------------------------|
A|---------------------------------------------|
E|---------------------------------------------|  x 2

Pegasus Fantasy
              Cm
Siempre la verdad
          Gm
vencer
Расскажи друзьям!




Войдите, используя Ваш аккаунт:



Забыли пароль?
Зарегистрироваться

Привет, гитарист!

Пройди супер-курс по гитаре и порази всех своей игрой!

Забрать курс!
ВАМ ПОДАРКИ ОТ ПРОЕКТА
"ГИТАРНАЯ РЕВОЛЮЦИЯ"