Gitaristu.ru
Аккорды Табулатура Начинающим Мастер-класс Софт Видео Форум Блог
Новости Анонсы Гитары Гитаристы Статьи Аватарки Минусовки
Поиск





Популярные подборы




Настройка гитары






Главная > Аккорды > S > Saliva

Аккорды
Saliva
-
Always (табулатура)

Не нашли аккорды к песне? Посмотрите на


Подбор прислал: gitaristu.ru



Date: Wed, 01 Jan 2003 21:00:57 +0000
From: Linux 0s 
Subject: s/saliva/always.tab

Artist: Saliva
Song: Always
Album: Back Into Your System
From: Mike McCaughey, linux0s@hotmail.com

Legend:   = slide,  ^И = Hammer-on
Guitar 1 = left channel, Guitar 2 = right channel


[INTRO - VERSE 1:]

(Guitar 1)                                                    (Repeat)

E -------------------------------------------------------------------
B -------------------------------------------------------------------
G -------------------------------------------------------------------
D --------2------------7---------------7-------------7--------------2
A -----2-----2------5-----5--------5------5-------7-----7--------2---
D --2-----------5-------------0--------------7--------------2------

          I hear                  a voice say Don't be so blind...


(On the third vocal line, a 2nd guitar now doubles the 1st)


[PRE-CHORUS:]

(Guitar 1 plays first position chords while)
(Guitar 2 plays:)

     C                 Bsus

E ---0-----------------0-----------------
B ---8-----------------0-----------------
G ---9-----------------9-----------------
D --10-----------------9-----------------
A --10-----------------9-----------------
D --10-----------------9-----------------

      Always   always   always   always


    Am7               C              D

E --0------------------0-------------X---------------
B --8------------------8------------10---------------
G --9------------------9------------11---------------
D --7-----------------10------------12---------------
A --7-----------------10------------12---------------
D --7-----------------10------------12---------------

     always   always   I just can't live without you



[CHORUS:]

(Both Guitars)

    Em        G          D                Am

E --0---------3----------2----------------0---------------
B --0---------3----------3----------------1---------------
G --0---------4----------2----------------2---------------
D --2---------5----------0----------------2---------------
A --2---------5----------0----------------0---------------
D --2---------5----------0--------------------------------

        I   love  you  I hate you I can't get around you...


(On the third and fourth chorus lines: play C in place of Am)


[SLOWDOWN:]

(Guitar 1 repeats the intro bit while Guitar 2 plays:)

    Em           G            D            Am

E --0------------0------------0------------------0--------
B -----7--8---------7--8---------7--8------8--7-----------
G --------------------------------------------------------
D --------------------------------------------------------
A --------------------------------------------------------
D --------------------------------------------------------

                        ...done with you... done with you... [2x]



[VERSE 2:]

(Guitar 1 -  background, if at all)
(Guitar 2 now prominent:)

    Em           G          D            Am          (repeat)

E ----------0--------0---------0----------------------------0
B --8----7--------7---------7----------------7--8--------7---
G -------------0---------0---------------0------------0------
D -----------------------------------------------------------
A -----------------------------------------------------------
D -----------------------------------------------------------

         I feel           like you dont want me around...


[PRE]


[CHORUS]


   Em  G           D                  C

...I love you    I hate you   I can't live without you


[Middle 8:]

(Guitar 1)

    A6          G                Em      Em    F      Em  Em  F

E --0-----------3-----------------X-------X----X----
B --0-----------3-----------------X-------X----X----
G --2-----------4-----------------0-------0----0----
D --2-----------5--------------0-^И2----0-^И2----3----
A --0-----------5--------------0-^И2----0-^И2----3----
D --------------5--------------0-^И2----0-^И2----3----

    I left my head around your heart


(Guitar 2)

         Em   Em    F      Em   Em   F    A6

E -------------------------------------------
B -------------------------------------------
G -------11---12----14-----11---9----7----9--
D -------------------------------------------
A -------9----10----12-----9----7----5----7--
D -------------------------------------------

...your heart

(second time around Guitar 2 heavily bends an A note]

     A6                C        D

  ...Always   always   always   always


[VERSE 3]

(Guitar 1 plays intro bit)
(Guitar 2 doubles on 3rd vocal line)


[CHORUS]


[ENDING]


Em        G        D    A6

...Always   always   always


[OUTRO]                                          (Repeat)


E --------0-----------0-----------0-----------0--
B --8--7--------8--7--------8--7--------8--7-----
G -----------0-----------0-----------0-----------
D -----------------------------------------------
A -----------------------------------------------
D -----------------------------------------------


Notes:
Covering with one guitar: In the [PRE-CHORUS] play the C, Bsus and Am7 ala 
Guitar 2 then switch to Guitar 1 power chords for the C:X3555X and D:05777X. 
In the [Middle 8] play Guitar 1. Have fun  ~®


Расскажи друзьям!




Войдите, используя Ваш аккаунт:



Забыли пароль?
Зарегистрироваться

Привет, гитарист!

Пройди супер-курс по гитаре и порази всех своей игрой!

Забрать курс!
ВАМ ПОДАРКИ ОТ ПРОЕКТА
"ГИТАРНАЯ РЕВОЛЮЦИЯ"