Gitaristu.ru
Аккорды Табулатура Начинающим Мастер-класс Софт Видео Форум Блог
Новости Анонсы Гитары Гитаристы Статьи Аватарки Минусовки
Поиск





Популярные подборы




Настройка гитары






Главная > Аккорды > S > Saliva

Аккорды
Saliva
-
Click Click Boom bass (табулатура)

Не нашли аккорды к песне? Посмотрите на


Подбор прислал: gitaristu.ru
Tuning: Standard: Right: EADG
Artist: Saliva
Album: Every six seconds.
Song: Click Click Boom

Intro/Chorus: 
G|------------------------------|
D|------------------------------| 
A|-4-2-0-2-----------4-2-2-2----|
E|----------2-2-2-0-------------|

Pre-chorus:
G|---------------------------|
D|---------------------------|
A|--4-4-4----5-5-5----7-7----|
E|---------------------------|

Bridge:
G|----------------------------------------------------------------|
D|----------------------------------------------------------------|
A|---------------------------------4-4-4-4-4-4-4
Расскажи друзьям!




Войдите, используя Ваш аккаунт:



Забыли пароль?
Зарегистрироваться

Привет, гитарист!

Пройди супер-курс по гитаре и порази всех своей игрой!

Забрать курс!
ВАМ ПОДАРКИ ОТ ПРОЕКТА
"ГИТАРНАЯ РЕВОЛЮЦИЯ"