Gitaristu.ru
Аккорды Табулатура Начинающим Мастер-класс Софт Видео Форум Блог
Новости Анонсы Гитары Гитаристы Статьи Аватарки Минусовки
Поиск





Популярные подборы




Настройка гитары






Главная > Аккорды > S > Saliva

Аккорды
Saliva
-
Doperide bass (табулатура)

Не нашли аккорды к песне? Посмотрите на


Подбор прислал: gitaristu.ru
Saliva - Doperide
Album: Every Six Seconds

bass tab

by : doky 2007
taquilleros_de_sudamerica_maroyu_el_grupo_tropical_del_momento@hotmail.com

5-stringed bass
G D A E B

   INTRO
G-|-------------------|
D-|-------------------|
A-|-------------------|
E-|-----0h2----3----3-|
B-|-222-----22---22---|
                                                                              
   VERSO
G-|--------------------|
D-|--------------------|
A-|--------------------|
E-|---224---224---22h4-|
B-|-2-----2-----2------|
                                                                              
   BREAK
G-|------------|
D-|------------|
A-|------------|
E-|------------|
B-|-5555544444-|
                                                                              
Le mando salutaciones Al Antonio Aguilar que hace tareses y el a
Расскажи друзьям!




Войдите, используя Ваш аккаунт:



Забыли пароль?
Зарегистрироваться

Привет, гитарист!

Пройди супер-курс по гитаре и порази всех своей игрой!

Забрать курс!
ВАМ ПОДАРКИ ОТ ПРОЕКТА
"ГИТАРНАЯ РЕВОЛЮЦИЯ"