Gitaristu.ru
Аккорды Табулатура Начинающим Мастер-класс Софт Видео Форум Блог
Новости Анонсы Гитары Гитаристы Статьи Аватарки Минусовки
Поиск





Популярные подборы




Настройка гитары






Главная > Аккорды > S > Saliva

Аккорды
Saliva
-
King Of The Stereo bass (табулатура)

Не нашли аккорды к песне? Посмотрите на


Подбор прислал: gitaristu.ru
I think this song is played with a 5-string bass since the tuning gets kind of weird 
playing on a 4-string, but what the heck, I give you the tab for a 4-string anyway. If you 
5-string you can just remake this tab so that it fits you.

Tuning: F# C# G# C#

Chorus x2
F#---------------repeat 3 times--|---play this the fourth time---|
C#-------------3-----------------|-------------------------------|
G#-5---3-5---5---5---------------|-1---1-1-0-----1---3-3---3-0---|
C#-------------------5-5-5-5-5-3-|-----------3-----------------5-|

Verse x8
-------------------------------|
-------------------------------|
-------------------------------|
-5-5-5-5---3---0---0---0-3-0-3-|

Pre-chorus x2
---------------------------------------------------------------|
---------------------------------------------------------------|
-1---1---1-----1---1---1-1---1---3---3---3-----3---3---3-3---3-|
---------------------------------------------------------------|
---------------------------------------------------------------|

Chorus x1

Verse x8

Pre-chorus x2

Chorus x2

Bridge x2
--------------repeat 3 times---|-----and this on the fourth----|
-------------------------------|-------------------------------|
-5-----------------------3-----|-5-----------------------5-4-3-|
-------------------------------|-------------------------------|
-------------------------------|-------------------------------|

Pre-chorus x4

Then play this x2
---------------------------------------------------------------|
-0---0---0-----0---0---0-0---0---------------------------------|
---------------------------------1---1---1-----1---1---1-1---1-|
---------------------------------------------------------------|

---------------------------------------------------------------|
---------------------------------------------------------------|
---------------------------------1---1---1-----1---1---1-1---1-|
-5---5---5-----5---5---5-5---5---------------------------------|

Chorus x2
Расскажи друзьям!




Войдите, используя Ваш аккаунт:



Забыли пароль?
Зарегистрироваться

Привет, гитарист!

Пройди супер-курс по гитаре и порази всех своей игрой!

Забрать курс!
ВАМ ПОДАРКИ ОТ ПРОЕКТА
"ГИТАРНАЯ РЕВОЛЮЦИЯ"