Gitaristu.ru
Аккорды Табулатура Начинающим Мастер-класс Софт Видео Форум Блог
Новости Анонсы Гитары Гитаристы Статьи Аватарки Минусовки
Поиск





Популярные подборы




Настройка гитары






Главная > Аккорды > S > Saliva

Аккорды
Saliva
-
Ladies And Gentlemen bass (табулатура)

Не нашли аккорды к песне? Посмотрите на


Подбор прислал: gitaristu.ru
    /Ladies and Gentlemen/
   /by: Saliva          /
  /Tabbed by: JRAB277  /

Drop: C# G# C# F#
*Pick Throughout*

Bridge:
F#--------------------------------------------------|
C#--------------------------------------------------|
G#--------------------------------------------------|
C#--3--0--0--5--0--0--3--0--0--5--0--0--3--2--0-----|     x4


Verse:
---------------------------------------------------|
---------------------------------------------------|
---------------------------------------------------|
--3--0--0--5--0--0--3--0--0--5--0--0--3--0--5--0---|     x4


Bridge:
---------------------------------------------------|
---------------------------------------------------|
---------------------------------------------------|
--3--0--0--5--0--0--3--0--0--5--0--0--3--2--0------|     x4

Pre Chorus:
------------------------------------------------------|
------------------------------------------------------|
---------------------------------------------33333333-|
--888(5)8888\3--555(3)5555(3)----88888888-------------|

Chorus:
      x3
I --------- I ----------------------------------------------|
I*---------*I ----------------------------------------------|
I*--5------*I ----------------------------------------------|
I ---3-x-3- I --3--0--0--5--0--0--3--0--0--5--0--0--3--2--0-|    x2

Bridge:
---------------------------------------------------|
---------------------------------------------------|
---------------------------------------------------|
--3--0--0--5--0--0--3--0--0--5--0--0--3--2--0------|     x12


Pre Chorus:
------------------------------------------------------|
------------------------------------------------------|
---------------------------------------------33333333-|
--888(5)8888\3--555(3)5555(3)----88888888-------------|

Chorus:
      x3
I --------- I ----------------------------------------------|
I*---------*I ----------------------------------------------|
I*--5------*I ----------------------------------------------|
I ---3-x-3- I --3--0--0--5--0--0--3--0--0--5--0--0--3--2--0-|     x2

Bridge:
----------------------------------------------------|
----------------------------------------------------|
----------------------------------------------------|
--3--0--0--5--0--0--3--0--0--5--0--0--3--2--0-------|     x12


Pre Chorus:
              x2
I ------------------------------ I ------------------------|
I*------------------------------*I ------------------------|
I*------------------------------*I ---------------33333333-|
I --888(5)8888\3--555(3)5555(3)- I ---88888888-------------|


Chorus:
      x3
I --------- I ----------------------------------------------|
I*---------*I ----------------------------------------------|
I*--5------*I ----------------------------------------------|
I ---3-x-3- I --3--0--0--5--0--0--3--0--0--5--0--0--3--2--0-|     x4


Outro:
------------------------------------------------------------|
------------------------------------------------------------|
------------------------------------------------------------|
-0~---------------------------------------------------------|

It
Расскажи друзьям!




Войдите, используя Ваш аккаунт:



Забыли пароль?
Зарегистрироваться

Привет, гитарист!

Пройди супер-курс по гитаре и порази всех своей игрой!

Забрать курс!
ВАМ ПОДАРКИ ОТ ПРОЕКТА
"ГИТАРНАЯ РЕВОЛЮЦИЯ"