Gitaristu.ru
Аккорды Табулатура Начинающим Мастер-класс Софт Видео Форум Блог
Новости Анонсы Гитары Гитаристы Статьи Аватарки Минусовки
Поиск





Популярные подборы




Настройка гитары






Главная > Аккорды > S > Saliva

Аккорды
Saliva
-
Raise Up bass (табулатура)

Не нашли аккорды к песне? Посмотрите на


Подбор прислал: gitaristu.ru
Saliva - Raise up
Album: Back Into Your System

bass tab

by : doky 2007
taquilleros_de_sudamerica_maroyu_el_grupo_tropical_del_momento@hotmail.com

5-stringed bass
G D A E B

   INTRO
G-|-------------------|-----6-------4h6-----4-------2h4-|----------------|
D-|-------------------|---------4h6-------------2h4-----|-----44---------|
A-|-------------------|-444---4---------222---2---------|----------------|
E-|-------------------|---------------------------------|-222----000-333-|
B-|-22-23-23--2-23-23-|---------------------------------|----------------|
          *A*                        *B*                                       

   VERSO
G-|-----|
D-|-----|
A-|-----|
E-|-----|
B-|-----|
    *A*                                                                        

   PRE-CORO
G-|-------------------------------|
D-|-------------------------------|
A-|-------------------------------|
E-|-----0-2----0-2-----0-2----3-2-|
B-|-2-------22-----2-------22-----|
                                                                              

   CORO
G-|-------|--------------------------|----|--------|
D-|-------|-----4---------2h4--------|----|--------|
A-|-------|---------2h4--------------|----|--------|
E-|-------|-222---2-----2-----0-0000-|----|-333333-|
B-|-------|--------------------------|----|--------|
     *B* +                              +                                       

   MIDDLE
G-|-------|---|-----------|
D-|-------|---|-----------|
A-|-------|---|-----------|
E-|-------|---|-----------|
B-|-22----|---|-2----2----|
            +                                                                  

G-|----------------------|
D-|----------------------|
A-|----------------------|
E-|-0h2-22-0h3-33-3h5-55-|
B-|----------------------|

Mando salutaciones y congratulaciones a La Adriana Bonilla del QB 2004 que
una vez pues se ha asustado cuando me lo queria comer la mariposa negra del jardin
en frente del curso. pero lo he soltado ya que me dijeron que era venenoso, yaaaaats
bien que ya me comi unos cuantos en el jardin.

doky2007
Расскажи друзьям!




Войдите, используя Ваш аккаунт:



Забыли пароль?
Зарегистрироваться

Привет, гитарист!

Пройди супер-курс по гитаре и порази всех своей игрой!

Забрать курс!
ВАМ ПОДАРКИ ОТ ПРОЕКТА
"ГИТАРНАЯ РЕВОЛЮЦИЯ"