Gitaristu.ru
Аккорды Табулатура Начинающим Мастер-класс Софт Видео Форум Блог
Новости Анонсы Гитары Гитаристы Статьи Аватарки Минусовки
Поиск





Популярные подборы




Настройка гитары






Главная > Аккорды > S > Saliva

Аккорды
Saliva
-
Rest in pieces (табулатура)

Не нашли аккорды к песне? Посмотрите на


Подбор прислал: gitaristu.ru



Date: Mon, 25 Oct 2004 23:09:21 -0500
From: gammend@memphis.edu
Subject: s/saliva/rest_in_pieces.tab


Rest In Pieces
By: Saliva

This is the best tab for this great song written by Nikki Sixx for 
Saliva




Intro

E----------------------------------
B---------6---------------4--------
G-----6-----6---6-----6-----6---6--
D---6---6-----6-----4---4-----4----
A-4---------------4----------------
E----------------------------------


Verse

E----------------------------------
B---------6---------------4--------
G-----6-----6---6-----6-----6---6--
D---6---6-----6-----4---4-----4----
A-4---------------4----------------
E----------------------------------


Chorus


E----------------------------------
B----------------------------------
G----4----7----------4----7--------
D----4----7----5-----4----7----5---
A----2----5----5-----2----5----5---
E--------------3---------------3---
                       
E----------------------------------
B----------------------------------
G-6-6-6-6--------------------6-----
D-6-6-6-6-7-7-7-7-9-9-9-9----6-----
A-4-4-4-4-7-7-7-7-9-9-9-9----4-----
E---------5-5-5-5-7-7-7-7----------


Расскажи друзьям!




Войдите, используя Ваш аккаунт:



Забыли пароль?
Зарегистрироваться

Привет, гитарист!

Пройди супер-курс по гитаре и порази всех своей игрой!

Забрать курс!
ВАМ ПОДАРКИ ОТ ПРОЕКТА
"ГИТАРНАЯ РЕВОЛЮЦИЯ"