Gitaristu.ru
Аккорды Табулатура Начинающим Мастер-класс Софт Видео Форум Блог
Новости Анонсы Гитары Гитаристы Статьи Аватарки Минусовки
Поиск





Популярные подборы




Настройка гитары






Главная > Аккорды > S > Saliva

Аккорды
Saliva
-
Rock And Roll Revolution bass (табулатура)

Не нашли аккорды к песне? Посмотрите на


Подбор прислал: gitaristu.ru
Guitar Intro
Brief Pause

Bass Intro  (played pretty fast)
G [-----------------------------------------------]
D [-----------------------------------------------] x4
A [-------------------2---------------------------]
Db[-330h3h5p3p0--330h3-30--330h3h5p3p0--330h3/8^--]

Verse  x4     x1      x1
G [------|-------|-------]
D [------|-------|-------] x8
A [------|-------|-------]
Db[-3303-|-30-8^-|-30-6^-]

Pre-Chorus last time let the -3- ring
G [-------------------------]
D [-------------------------] x4
A [-------------------------]
Db[-7777/-9999/-101010-333--]

Chorus
G [--------------------------------------------------]
D [--------------------------------------------------] x2
A [--------------------------------------------------]
Db[-2-0-2/-875--2-0-2/-87^-5555-5555-55-7777-7777-77-]

Post Chorus
G [---------------------------]
D [---------------------------] x1
A [---------------------------]
Db[-10(x8)-7(x8)-10(x8)-5(x8)-]

Interlude           second time don't hold -6-
G [-----------------------------------------------]
D [-----------------------------------------------] x2
A [-------------------2---------------------------]
Db[-330h3h5p3p0--330h3-30--330h3h5p3p0--330h3/6^--]

Verse

Pre-Chorus

Chorus

Post Chorus

Interlude

Verse

Pre-Chorus

Chorus

Post Chorus

Ending
G [-------------------------------------------------]
D [-------------------------------------------------] x1
A [-------------------2-----------------------------]
Db[-330h3h5p3p0--330h3-30--330h3h5p3p0--330h3/5h6^--]

G [----------------------------------------------]
D [----------------------------------------------] x1
A [-------------------2--------------------------]
Db[-330h3h5p3p0--330h3-30--330h3h5p3p0--330h3/6--]

Расскажи друзьям!




Войдите, используя Ваш аккаунт:



Забыли пароль?
Зарегистрироваться

Привет, гитарист!

Пройди супер-курс по гитаре и порази всех своей игрой!

Забрать курс!
ВАМ ПОДАРКИ ОТ ПРОЕКТА
"ГИТАРНАЯ РЕВОЛЮЦИЯ"