Gitaristu.ru
Аккорды Табулатура Начинающим Мастер-класс Софт Видео Форум Блог
Новости Анонсы Гитары Гитаристы Статьи Аватарки Минусовки
Поиск





Популярные подборы




Настройка гитары






Главная > Аккорды > S > Saliva

Аккорды
Saliva
-
Weight Of The World bass (табулатура)

Не нашли аккорды к песне? Посмотрите на


Подбор прислал: gitaristu.ru
Saliva - Weight of the world
Album: Back Into Your System

bass tab

by : doky 2007
taquilleros_de_sudamerica_maroyu_el_grupo_tropical_del_momento@hotmail.com

5-stringed bass
G D A E B

   INTRO
G-|--------------------|
D-|--------------------|
A-|--------------------|
E-|--------------------|
B-|-2/6-66-2/6-66-2222-|
                                                                              

   VERSO
G-|-----------|
D-|-----------|
A-|-----------|
E-|-----------|
B-|-2----6----|
                                                                              

   CORO
G-|-----------------------------------------------|
D-|-----------------------------------------------|
A-|-----------------------------------------------|
E-|-----------------------------------------------|
B-|-4----4444----444-4-444-2----2222----222-2-222-|
                                                                              

G-|-----------------------------------------------|
D-|-----------------------------------------------|
A-|-----------------------------------------------|
E-|-1----1111----111-1-111------------------------|
B-|------------------------4----4444----444-4-444-|
                                                                              

G-|-----------*-----------|-----------------|-----------|
D-|-----------*-----------|-----------------|-----------|
A-|-----------*-----------|-----------------|-----------|
E-|-----------*-----------|-----------------|-----------|
B-|-6666/9999-*-4444\2222-|-----------------|-2222/4444-|
       *A*                  variacion *A* +                                    

   MIDDLE
G-|---------------------|---------------------|
D-|---------------------|---------------------|
A-|---------------------|---------------------|
E-|-6----6-6------4-444-|-6----6-6------6-666-|
B-|----------6----------|----------6----------|

Le congratulo harto al este ps, Al Juan Pablo Almaraz que mucho jackass hace
pero creo que no lo filma, pero era del QB 2004 oooooye y tenia su banda
de jazz, donde tocaba el pifano.

doky2007
Расскажи друзьям!




Войдите, используя Ваш аккаунт:



Забыли пароль?
Зарегистрироваться

Привет, гитарист!

Пройди супер-курс по гитаре и порази всех своей игрой!

Забрать курс!
ВАМ ПОДАРКИ ОТ ПРОЕКТА
"ГИТАРНАЯ РЕВОЛЮЦИЯ"