Gitaristu.ru
Аккорды Табулатура Начинающим Мастер-класс Софт Видео Форум Блог
Новости Анонсы Гитары Гитаристы Статьи Аватарки Минусовки
Поиск





Популярные подборы




Настройка гитары






Главная > Аккорды > S > Samhain

Аккорды
Samhain
-
Novembers Fire bass (табулатура)

Не нашли аккорды к песне? Посмотрите на


Подбор прислал: gitaristu.ru
Samhain
Novembers coming fire

Main Riff
G-----------------|
D-----------------|
A---------7-6-6---|
E---05------------|

Verse
G-----------------|
D-----------------|
A-------5-4-------|
E---03------------|

Chorus
G-----|--------|----------|
D-----|--------|----------|
A-5---|--8-----|--6-------|
E-----|------8-|-------6--|


CORRECT DUDE
jrk
Расскажи друзьям!




Войдите, используя Ваш аккаунт:



Забыли пароль?
Зарегистрироваться

Привет, гитарист!

Пройди супер-курс по гитаре и порази всех своей игрой!

Забрать курс!
ВАМ ПОДАРКИ ОТ ПРОЕКТА
"ГИТАРНАЯ РЕВОЛЮЦИЯ"