Gitaristu.ru
Аккорды Табулатура Начинающим Мастер-класс Софт Видео Форум Блог
Новости Анонсы Гитары Гитаристы Статьи Аватарки Минусовки
Поиск





Популярные подборы




Настройка гитары






Главная > Аккорды > S > Samhain

Аккорды
Samhain
-
The Howl bass (табулатура)

Не нашли аккорды к песне? Посмотрите на


Подбор прислал: gitaristu.ru
BAND:Samhain
SONG:The Howl
ALBUM:Initium

 
riff-1

G|-------------------------|-------------------------|
D|-12----------12-12-------|-------------10----------|    
A|-------12----------12----|--8--8--8--8-------------|
E|-------------------------|-------------------------|

riff-2

G|--------------------------------------------------|
D|------5---5---55---7--7-----77--------------------|
A|-----5--5--555---7--7---777-----------------------|
E|--------------------------------------------------|

riff-3
G|------------------------------------------|
D|------------66--------88------88----------|
A|-------666-------888------666-------------|
E|------------------------------------------|

End
G-----------------------------------|
D-----------44444-33333-------------|
A---33333333------------------------|
E-----------------------------------|
Расскажи друзьям!




Войдите, используя Ваш аккаунт:



Забыли пароль?
Зарегистрироваться

Привет, гитарист!

Пройди супер-курс по гитаре и порази всех своей игрой!

Забрать курс!
ВАМ ПОДАРКИ ОТ ПРОЕКТА
"ГИТАРНАЯ РЕВОЛЮЦИЯ"