Gitaristu.ru
Аккорды Табулатура Начинающим Мастер-класс Софт Видео
Новости Анонсы Гитары Гитаристы Статьи Аватарки Минусовки
Поиск



Популярные подборы




Настройка гитары






Главная > Аккорды > S > Sanctus Real

Аккорды
Sanctus Real
-
Everything About You bass (табулатура)

Не нашли аккорды к песне? Посмотрите на


Подбор прислал: gitaristu.ru
Artist: Sanctus Real
Album: Fight The Tide
Song:  Everything About You
(c)2004 Sparrow Records


INTRO
Gb------------------|----------1st time|----------2--------|nd time
Db-------------7-54-|------------------|-------------------|
Ab--2-2-0240-0-----5|----5--5-4-5-754--|----50-----4-540---|
Db------------------|5-5--5------------|2-2----5-5---------|


VERSE 1
Gb-----------------------------------|
Db-----------------------------------|
Ab--2-2-2-2-0-0-0-0------------------|
Db------------------2-2-2-2-5-5-5-5--| Repeat 3x

Gb---------------------------------------|
Db---------------------------------------|
Ab--2-2-2-2-0-0-0-0-7-7-7-7-10-10-10-10--|
Db---------------------------------------|

Gb---------------------------------|
Db---------------------------------|
Ab--0-0-0-0-0-0-0-0----------------|
Db------------------5-5-5-5-22222--|


CHORUS
Gb-------------------------------------------------------|
Db-------------------------------------------------------|
Ab----02-----2-2-2-2-0-0-0-0------------0-0-0-0-(5-420)--|
Db--5----0-------------------5-55--0---------------------|

Gb----------------------------------------------------------|
Db----------------------------------------------(11-12-14)--|
Ab----02-----2-2-2450-0-0-0-------------0-0-0-0*------------|
Db--5----0-------------------5-5-5420-----------------------|
(these are licks that you don't have to play)
* =  let ring


PRE-VERSE 2
Gb------------------------------------------|
Db-------------7-540----------------- <-- 0-| here is easier to play
Ab--2-2-0240-0----------50-----4-54---------|
Db------------------2-2----5-5--------------|


VERSE 2
Gb------------------------------------|
Db--------------7-54------------------|
Ab--2-2-2-2-0-0-----5----5----5555----|
Db-------------------5-5--5-5-----55--|

Gb------------------|------------1st time|-----------2--------|nd time
Db------------------|----2-2-----544\----|--------------------|
Ab--2-2-2-2-0-0-0-0-|--------------------|-7-7-7-7------------|
Db------------------|2-2-----5-5---------|---------5-5-5-7/---|

Gb---------------------------------------------|
Db---------------------------------------------|
Ab--12-12-12-12-12-12-12-12-10-10-10-10\-------|
Db-------------------------------------

Другие подборы этого исполнителя

Расскажи друзьям!




Привет, гитарист!

Пройди супер-курс по гитаре и порази всех своей игрой!

Забрать курс!
ВАМ ПОДАРКИ ОТ ПРОЕКТА
"ГИТАРНАЯ РЕВОЛЮЦИЯ"