Gitaristu.ru
Аккорды Табулатура Начинающим Мастер-класс Софт Видео
Новости Анонсы Гитары Гитаристы Статьи Аватарки Минусовки
Поиск



Популярные подборы




Настройка гитары






Главная > Аккорды > S > Shout Out Louds

Аккорды
Shout Out Louds
-
Meat Is Murder (табулатура)

Не нашли аккорды к песне? Посмотрите на


Подбор прислал: gitaristu.ru
-------------------------------------------------------------------------------
                             MEAT IS MURDER - Shout Out Louds
-------------------------------------------------------------------------------
Tabbed by: mab0009081
Email: benno167@hotmail.com

Tuning: STANDARD

e|-----------------5-------------------------------5--------------5----------|
B|------9----7----------9----7----------9----7----------9----7---------9----7|
G|-6-------------------------------6-----------------------------------------|
D|-----------------4-------------------------------4--------------4----------|
A|------7----5----------7----5----------7----5----------7----5---------7----5|
E|-5-------------------------------5-----------------------------------------|

Lyrics:

Oh, i'm fading.
I don't stand a chance
and meat is murder
and i don't even dance
and something is still worring me tonight.

Oh, i'm falling
and nothings working out
and what comes out from my mouth is nothing to worry to about
'cause everything sounds miserable tonight


For the last part, just play the bass notes to accompany the final verse:

e|---------------------------------------------------------------------------|
B|---------------------------------------------------------------------------|
G|---------------------------------------------------------------------------|
D|-------------------4-------------------------------------------------------|
A|------7----5------------7----5---------------------------------------------|
E|-5------------5------------------------------------------------------------|

I haven't said too much, have I?
There are things you should keep to yourself.
I haven't said too much, have I?
There are things you should keep to yourself.
I haven't said too much, have I?
There are things you should keep to yourself.

(for the last two lines it's just vocals - no guitar plays)

And that's about it, my first ever tab. Hope it works out for you!

Другие подборы этого исполнителя

Расскажи друзьям!




Привет, гитарист!

Пройди супер-курс по гитаре и порази всех своей игрой!

Забрать курс!
ВАМ ПОДАРКИ ОТ ПРОЕКТА
"ГИТАРНАЯ РЕВОЛЮЦИЯ"