Gitaristu.ru
Аккорды Табулатура Начинающим Мастер-класс Софт Видео
Новости Анонсы Гитары Гитаристы Статьи Аватарки Минусовки
Поиск



Популярные подборы




Настройка гитары






Главная > Аккорды > S > Shout Out Louds

Аккорды
Shout Out Louds
-
Normandie (табулатура)

Не нашли аккорды к песне? Посмотрите на


Подбор прислал: gitaristu.ru
i just tabbed this myself, so feel free to comment adjustments, or even other parts of
the song! I love this song, and i figure this is an important part of it!
/s/= Slide. from the fret before to the fret after the S

(2 times)
E----------------------|
A-----------------8-8-8|
D-10-10-8-7-7-8-7------|
G----------------------|
B----------------------|
e----------------------|

(2 times)
E-----------------------------|
A-------------8------8-8-8----|
D-10/s/12-10-7--7-8-7---------|
G-----------------------------|
B-----------------------------|
e-----------------------------|

Repeat through parts of the song! its quiter and louder during different spots, and im
sure you can figure it out!
Enjoy,
Kevin Hunt

Другие подборы этого исполнителя

Расскажи друзьям!




Привет, гитарист!

Пройди супер-курс по гитаре и порази всех своей игрой!

Забрать курс!
ВАМ ПОДАРКИ ОТ ПРОЕКТА
"ГИТАРНАЯ РЕВОЛЮЦИЯ"