Gitaristu.ru
Аккорды Табулатура Начинающим Мастер-класс Софт Видео
Новости Анонсы Гитары Гитаристы Статьи Аватарки Минусовки
Поиск



Популярные подборы




Настройка гитары






Главная > Аккорды > S > Showoff

Аккорды
Showoff
-
Borderline bass (табулатура)

Не нашли аккорды к песне? Посмотрите на


Подбор прислал: gitaristu.ru
+++++++++++++++++++++++
| Showoff- Borderline |
+++++++++++++++++++++++

Ok, here is my updated version with the whole song
Hope you enjoy this great cover
=D

EADG

Intro
1.
G|-----|
D|-9\2-|
A|-----|
E|-----|

2.
G|------------------|
D|-2~--22-----------|
A|----2---2-5~-4~-2-|--x4
E|------------------|

Verse
"Something in the way you love me.."
3.
G|------------------|
D|-2~--22-----------|
A|----2---2-5~-4~-2-|--x4
E|------------------|

"Stop playing with my heart..."
4.
G|---------------------|
D|-222-222-------------|
A|----2---2-555-444-22-|--x3
E|---------------------|

"Honey dont you fool around.."
5.
G|-------------------|
D|-22222222-22222222-|
A|-------------------|
E|-------------------|

Pre-Chorus
"Just try to understand.."
6.
G|-----------------------------------------2-2-222------------------|
D|---------3-3-333-4-4-444---------2-2-222--------------------------|
A|-4-4-444-----------------2-2-222------------------2-2-2-22-2-2-2~-|
E|------------------------------------------------------------------|

Chorus 
"Borderline.. I feel like Im going to lose my mind.."
7.
G|----------------------------------------------------------------|
D|----------------------------------------------2-2-222-2---------|
A|-6-66-543-333-356-44~-22~-1-1111-111--0-0-000----------22~-222~-|--x2
E|----------------------------------------------------------------|

Outro
8.
G|------------------|
D|-2~--22-----------|
A|----2---2-5~-4~-2-|--x4
E|------------------|

Verse
"Something in your eyes is making such a fool of me.."
9.
G|---------------------|
D|-222-222-------------|
A|----2---2-555-444-22-|--x4
E|---------------------|

"When you let me down.."
10.
G|-------------------|
D|-22x--22x----------|
A|-----------5~-4~-2-|--x3
E|-------------------|

"But theres something I just got to say.."
11.
G|-----------------------|
D|-22x--222x--222x--222x-|
A|-----------------------|
E|-----------------------|

Pre-Chorus
"Just try to understand.."
12.
G|-----------------------------------------2-2-222------------------|
D|---------3-3-333-4-4-444---------2-2-222--------------------------|
A|-4-4-444-----------------2-2-222------------------2-2-2-22-2-2-2~-|
E|------------------------------------------------------------------|

Chorus 
"Borderline.. I feel like Im going to lose my mind.."
13.
G|----------------------------------------------------------------|
D|----------------------------------------------2-2-222-2---------|
A|-6-66-543-333-356-44~-22~-1-1111-111--0-0-000----------22~-222~-|--x2
E|----------------------------------------------------------------|

Outro
"Keep pushing me.."
14.
G|-----------------------------------------------------------------------|
D|-------------------------------------------------2222-2222-2-----------|
A|-66666665-33333563-4444-222-11111-1111-0000-0000------------22~--2-22~-|--x2
E|-----------------------------------------------------------------------|

Lyrics:

Something in the way you love me wont' let me be
I don't want to be your prisoner
so baby, won't you set me free
Stop playing with my heart
Finish what you start
When you make my love come down
If you want me, let me know
Baby, let it show
Honey, don't you fool around

Just try to understand
I've given all I can
Cause you got the best of me

Borderline, I feel like I'm going to lose my mind
You just keep on pushing my love over the
borderline

Something in your eyes is makin' such a fool of me
When you hold me in your arms, you love me 'til I just can't see
Then you let me down, when I look around
Baby, you just can't be found
Stop driving me away, I just wanna stay
But there's something I just got to say

Just try to understand, I've given all I can
Cause you got the best of me

Keep pushing me
Keep pushing me
Keep pushing my love
Oh c'mon baby
Oh c'mon darling, dear

+++++++++++++++++++++++++++++++++
| RaiLeff                       |
| Underground__Dora@Hotmail.Com |
+++++++++++++++++++++++++++++++++
Расскажи друзьям!




Привет, гитарист!

Пройди супер-курс по гитаре и порази всех своей игрой!

Забрать курс!
ВАМ ПОДАРКИ ОТ ПРОЕКТА
"ГИТАРНАЯ РЕВОЛЮЦИЯ"