Gitaristu.ru
Аккорды Табулатура Начинающим Мастер-класс Софт Видео
Новости Анонсы Гитары Гитаристы Статьи Аватарки Минусовки
Поиск



Популярные подборы




Настройка гитары






Главная > Аккорды > S > Shpongle

Аккорды
Shpongle
-
Dorset perception (табулатура)

Не нашли аккорды к песне? Посмотрите на


Подбор прислал: gitaristu.ru



Date: Thu, 16 Mar 2006 22:01:39 -0500
From: reverse engineer 
Subject: s/shpongle/dorset_perception.tab


Shpongle - Dorset Perception
Tales of the innexpressible

Here's the awesome main riff from the song


---------0-------------0--------------0-----------0-----
------5-----------6-------6-----5----------3---------3-----
-----------4---------5-------------4----------4---------
---6------------7------------6-----------3---------------
---------------------------------------------------------
---------------------------------------------------------
--------------------------------------------------------


harmony part

---------------------------------------
-----9-----12-------10-----12----10----
-----9-----9--------10-----10----10----
--9-----9------/10------10-------------
---------------------------------------
---------------------------------------
---------------------------------------

Then the bass comes in with

---------------------------------------
---------------------------------------
----------8------7----------8-----7----
--0---/7------x7----0---/7------x------

as for the solo, any sort of psychotic Phrygian will do


panzerkampfwagen@gmail.com


Расскажи друзьям!




Привет, гитарист!

Пройди супер-курс по гитаре и порази всех своей игрой!

Забрать курс!
ВАМ ПОДАРКИ ОТ ПРОЕКТА
"ГИТАРНАЯ РЕВОЛЮЦИЯ"