Gitaristu.ru
Аккорды Табулатура Начинающим Мастер-класс Софт Видео
Новости Анонсы Гитары Гитаристы Статьи Аватарки Минусовки
Поиск



Популярные подборы




Настройка гитары






Главная > Аккорды > S > Shwayze

Аккорды
Shwayze
-
Buzzin bass (табулатура)

Не нашли аккорды к песне? Посмотрите на


Подбор прислал: gitaristu.ru
-------------------------------------------------------------------------------
			     SONG NAME - Band Name
-------------------------------------------------------------------------------

Tabbed By : pmbernal
e-mail: pmbernal3@yahoo.com

**************PLEASE RATE AND COMMENT*****************

*THIS IS MY FIRST TAB EVER!!! LET ME KNOW WHAT I MISSED*
*I THERE IS NO REAL BASS PLAYER FOR THE SONG BUT HERE'S THE BEAT OR W.E.*

Tuning:Standard


INTRO/CHORUS
PLAT AT THESE TIMES
[:03-:23] [:55-1:14] [1:46-2:04]<-- DON'T PLAY LAST NOTE HERE.[2:38-2:57]

G|---------------------------------------------------------------------------|
D|-----0--0-2---------0--0-2---------0--0-5--5-2--------0-0-2----------------|
A|-3--3---------3-3--3---------3-3--3--------------3--3----------------------|
E|---------------------------------------------------------------------------|

VERSE
[:24-:53] [1:15-1:45] [2:07-2:37]<--- DONT PLAY THAT G ON THE D STRING (5)

G|---------------------------------------------------------------------------|
D|-------0--0-2---------0--0-2---------0--0-5--5-2-------0-0-2---------------|
A|-3-3--3---------3-3--3---------3-3--3--------------3--3--------------------|
E|---------------------------------------------------------------------------|

[2:30]<--- DONT PLAY THAT G ON THE D STRING (5)

G|---------------------------------------------------------------------------|
D|-------5--0--0-0-0-0-------------------------------------------------------|
A|-3-3--3--------------------------------------------------------------------|
E|---------------------------------------------------------------------------|

ENDING
[2:58-END]
G|---------------------------------------------------------------------------|
D|-------0--0-2---------0--0-2---------0--0-5--5-2--------0-0-2--------------|
A|-3-3--3---------3-3--3---------3-3--3---------------3--3-------------------|
E|---------------------------------------------------------------------------|

G|---------------------------------------------------------------------------|
D|--2-5-5-5-----5-5--------5-5--------0--------------------------------------|
A|---------3-3-3---3-3-3-3-----3-3-3-----------------------------------------|
E|---------------------------------------------------------------------------|

*AGAIN MY FIRST TAB EVER, SOUNDS PRETTY GOOD, PATTERNS VARY BUT YOU CAN HEAR IT JUST FINE.*

===============================================================================

Другие подборы этого исполнителя

Расскажи друзьям!




Привет, гитарист!

Пройди супер-курс по гитаре и порази всех своей игрой!

Забрать курс!
ВАМ ПОДАРКИ ОТ ПРОЕКТА
"ГИТАРНАЯ РЕВОЛЮЦИЯ"