Gitaristu.ru
Аккорды Табулатура Начинающим Мастер-класс Софт Видео
Новости Анонсы Гитары Гитаристы Статьи Аватарки Минусовки
Поиск



Популярные подборы




Настройка гитары






Главная > Аккорды > S > Siakol

Аккорды
Siakol
-
Lagim bass (табулатура)

Не нашли аккорды к песне? Посмотрите на


Подбор прислал: gitaristu.ru
lagim by siakol
cenxa n neon lang aq gumwa ng tabs ehh
oi bhazag anu buhay kpa anu n junel at chun-chun
buhay p kau??^^

intro

G--------------------------------------|
D--------------------------------------|
A--777-7/12-12-12-12-11-11-11----------|
E-----------------------------12-12----|


stanza 1
G-----------------------------------------|
D-----------------------------------------|  4x
A--777-7/12-12-12-12-12-11-11-11----------|
E--------------------------------12--12---|


G-------------------------------------|
D-------------------------------------|
A---2-2-2-2-2-2-----------------------|
E-------------------5-5-5-5-5-5-5-----|
stanza 2
(repeat stanza 1)

G-------------------------------------------|
D-------------------------------------------|
A---2-2-2-2-2-2-----------------------------|
E-------------------5-5-5-5-5-5-------------|

chorus
G-----------------------------------------|
D-----------------------------------------|    3x
A-----7-7-7-------2-2-2-------------------|
E--------------------------5-5-5-5--------|

G--------------------------------------------------------|
D--------------------------------------------------------|
A-----7-7-7------2-2-2-----------------------------------|
E-------------------------5-5-5-5----2-2-2-2---5-5-5-5-5-|

add lead(repeat stanza)
stanza 3 prehas lng din sila
xka ung chorus


hahahah basic muna nag aaral plng eh
paki add nlng po palyado@rocketmail.com

Другие подборы этого исполнителя

Расскажи друзьям!




Привет, гитарист!

Пройди супер-курс по гитаре и порази всех своей игрой!

Забрать курс!
ВАМ ПОДАРКИ ОТ ПРОЕКТА
"ГИТАРНАЯ РЕВОЛЮЦИЯ"